Oasis - Take Me Text Guitar Tab

Learn the song with the online tablature player
Lyrics: Liam Gallagher
Music: Noel Gallagher and Paul "Bonehead" Arthurs

A very early demo song, recorded somewhere around 1992, before the band
was signed. Not available on any studio album, you might find it on rare
bootlegs such as "The Lost Tapes". You could also try to download it.

Tab key:

h = hammer on
b = bend
r = release bend
\ = slide down

This is the main rhythm riff Bonehead plays through the whole song except the solo

                                     (Play 4 times)
e:--------------------------------------------------|---------------|
B:--------------------------------------------------|---------------|
G:--------------5--5--5--5--------------2--2--2--2--|---------------|
D:--2--2--2--2--5--5--5--5--5--5--5--5--2--2--2--2--|--2---(Let-----|
A:--2--2--2--2--3--3--3--3--5--5--5--5--0--0--0--0--|--2---ring)----|
E:--0--0--0--0--------------3--3--3--3--------------|--0------------|

And this is Noel's lead, played all the time except on the solos:

Play this 3 times:
e:----------------------------15------15------15--------|
B:--17---17---17-17--17--17-------17------17------17----|
G:------------------------------------------------------|
D:------------------------------------------------------|
A:------------------------------------------------------|
E:------------------------------------------------------|

Then:
e:--------------------------------------------------|
B:--17---17---17-17--17--17---15--------------------|
G:-------------------------------16---14------------|
D:---------------------------------------17---14----|
A:--------------------------------------------------|
E:--------------------------------------------------|

Now for all other parts, from the beginning to the end:

Intro
======

e:---------------------------------------------|
B:---------------------------------------------|
G:---------------------------------------------|
D:--14\2---(Feed----2----------2----------2----|
A:--14\2----back)---2----------2----------2----|
E:--12\0------------0----------0----------0----|

Intro solo
(played over the above)

e:--12--15-12-15-12--10-------10---12-10--------------------------|
B:-----------------------12--------------12-10----10-12-10--------|
G:---------------------------------------------12----------12-9---|
D:----------------------------------------------------------------|
A:----------------------------------------------------------------|
E:----------------------------------------------------------------|

e:--------------------------------|
B:--------------------------------|
G:------------9--12--9--12---9----|
D:------9--12---------------------|
A:--12----------------------------|
E:--------------------------------|

verse
main riff's
Take me, when I'm young and true
Was it me or was it you?
Take me, when I'm not so strong
Why is it taking you so long?

verse
main riff's
Take me, when you feel I've gone
I always knew I could be someone
Take me, if you think you're right
But do it now, before it's light

Guitar solo

Play this 3 times:
e:----------------------------------------------------|
B:----------------------------------------------------|
G:----------12------------------12-12-----------------|
D:---12--14------14------12--14--------14---12--14----|
A:----------------------------------------------------|
E:----------------------------------------------------|

Then:
e:-------------------------------------------------------------|
B:-------------------------------------------------------------|
G:---------------------------------------------------12--------|
D:---12h14-12h14-12h14-12h14-12h14-12h14-12h14-12h14----14-12--|
A:-------------------------------------------------------------|
E:-------------------------------------------------------------|

e:-----------------------------------------------------------|
B:-----------------------------------------------------------|
G:---12--12-12--11-11----------------------------------------|
D:---12--12-12-----12-----12-12-12-12b14-14-14-14r12-12-12---|
A:-----------------------------------------------------------|
E:-----------------------------------------------------------|

e:--------------------------------------------------------|
B:--------------------------------------------------------|
G:-----------------------------------12--12-12--11-11-----|
D:--14-14-14-14-14----12--14--12-12--12--12-12-----12-----|
A:--------------------------------------------------------|
E:--------------------------------------------------------|

Rhythm guitar during solo

Play this 3 times:
e:----------------------------------------------------|
B:----------------------------------------------------|
G:--5--5--5--5--------------7--7--7--7--7--7--7--7----|
D:--5--5--5--5--5--5--5--5--7--7--7--7--7--7--7--7----|
A:--3--3--3--3--5--5--5--5--5--5--5--5--5--5--5--5----|
E:--------------3--3--3--3----------------------------|

Then play this 2 times:
e:----------------------------------------------------|
B:----------------------------------------------------|
G:--5--5--5--5--5--5--5--5----------------------------|
D:--5--5--5--5--5--5--5--5--5--5--5--5--5--5--5--5----|
A:--3--3--3--3--3--3--3--3--5--5--5--5--5--5--5--5----|
E:--------------------------3--3--3--3--3--3--3--3----|

e:----------------------------------------------------|
B:----------------------------------------------------|
G:--7--7--7--7--7--7--7--7--7--7--7--7--7--7--7--7----|
D:--7--7--7--7--7--7--7--7--5--7--7--7--7--7--7--7----|
A:--5--5--5--5--5--5--5--5--5--5--5--5--5--5--5--5----|
E:----------------------------------------------------|

verse
main riff's
Take me, if you think I'm sweet
Though my life feels incomplete
Take me, when I wish to live
For I still have this to give

Guitar interlude:

e:------------------------------------------------------------|
B:------------------------------------------------------------|
G:-----------------------------------12--12-11----------------|
D:--12h14-14-14-14-14-12h14-14-14-14--------------12h14-14-14-|
A:------------------------------------------------------------|
E:------------------------------------------------------------|

e:-------------------------------------------------------------|
B:-----------------------------12-12--13-15-13-12--------------|
G:-----------------------12------------------------12--14------|
D:--14-14-12h14-14-14-14-----------------------------------12--|
A:-------------------------------------------------------------|
E:-------------------------------------------------------------|

e:-----------------------------------|
B:--12-12--13-15-13-12---------------|
G:----------------------12--14-------|
D:------------------------------12---|
A:-----------------------------------|
E:-----------------------------------|

verse
main riff's
Take me, when I'm young and true
Was it me or was it you?
Take me, when I start to cry
Take me, take me, don't ask why

Outro
======

Play this 3 times:
e:-------------------------------------------------|
B:-------------------------------------------------|
G:--------------12-------------------12------------|
D:--------12h14----14----------12h14----14-12h14---|
A:--12h14---------------12--14---------------------|
E:-------------------------------------------------|

Then:
e:-------------------------------------------------|
B:-------------------------------------------------|
G:--------------12-------------------12b14r12------|
D:--------12h14----14----------12h14-----------14--|
A:--12h14---------------12--14---------------------|
E:-------------------------------------------------|

e:------------------------------|
B:------------------------------|
G:--------------12----12--------|
D:--------12h14----14-----14----|
A:--12h14-----------------------|
E:------------------------------|

This song is amazing! It's a shame they don't re-record it and release it
on a Lp studio album. Try hard to get this rare masterpiece! It's
well worth the struggle beleive me.

Enjoy!