Oasis - To Be Where Theres Life Live Text Guitar Tab

Learn the song with the online tablature player
For the main rhythm you need to up and down the frets between chords, when you listen to
song you'll understand what I mean!

Chords used: Cadd9 no5 (x30550) - This will be referred to as C1
             Dadd9 no5 (x50770) - This will be D1
             Dsus2

        C1 D1 C1                  C1 D1 C1

Verses
Day's____ turning to night
        C1 D1 C1              C1 D1 C1
        Pray____ for the light
        Dsus2
        Let me  come through, let me take you
        C1 D1 C1              C1 D1 C1
        way_____ over the line
        C1 D1 C1          C1 D1 C1        C1 D1 C1
        Everyone falling, everyone falling
        C1 D1 C1                C1 D1 C1               C1 D1 C1
        Dreamers come crawling, neighbours jump walling
        Dsus2
        Let me come through, let me take you
        C1 D1 C1               C1 D1 C1        C1 D1 C1       C1 D1 C1
        way_____ over the line, over the line, over the line, over the line

The song continues in this way throughout until Noel's outro at the end which goes a bit
this:-

E|-------------------------------------------------------------------------|
B|---------8-------------------------------8-------------------------------|
G|-7---9---------7---9---5---777---7---9---------7---9---5---777-----------|
D|-------------------------------------------------------------------------|
A|-------------------------------------------------------------------------|
E|-------------------------------------------------------------------------|

Repeat this about 7 or 8 times then...

E|-------------------------------------------------------------------------|
B|15-15-15-15-15-15-15--13-13-13-13h15-15-15--13-13-13h15-13-13h15-13-13h15|
G|-------------------------------------------------------------------------|
D|-------------------------------------------------------------------------|
A|-------------------------------------------------------------------------|
E|-------------------------------------------------------------------------|

E|13-15b16r15-13-----------------------------------------------------------|
B|---------------15-15--13-13-13-13h15-15-15--13-13-13h15-13-13h15-13-13h15|
G|-------------------------------------------------------------------------|
D|-------------------------------------------------------------------------|
A|-------------------------------------------------------------------------|
E|-------------------------------------------------------------------------|

E|13-15b16r15-13-----------------------------------------------------------|
B|---------------15-15--12-12-12-12-12-12-12-10-10-10-10-10-10-12-12-12-12b|
G|-------------------------------------------------------------------------|
D|-------------------------------------------------------------------------|
A|-------------------------------------------------------------------------|
E|-------------------------------------------------------------------------|

E|-------------------------------------------------------------------------|
B|13r12-10-10-10-10--12-12-12-12-12-12--13-13-13-13-13-13-15-15-15-15-15-15|
G|-------------------------------------------------------------------------|
D|-------------------------------------------------------------------------|
A|-------------------------------------------------------------------------|
E|-------------------------------------------------------------------------|