Oatmeal Dog - Astro Turf Condom Text Guitar Tab

Learn song with the online tabulature player
Astro Turf Condom
Oatmeal Dog

Standard Tuning

Intro/between verses
--------------------------------------------------------|
--------------------------------------------------------|
--------------------------------------------------------|
--------------------------------------------------------|
-5430345-5430345-54303453-------------------------------|
3-------3-------3---------------------------------------|


--------------------------------------------------------|
--------------------------------------------------------|
--------------------------------------------------------|
--------------------------------------------------------|
-5430345-5430345-54303453^------------------------------|
3-------3-------3---------------------------------------|


Verses

------------------------------------------------------------|
------------------------------------------------------------|
-2222------5555---------------------------------------------|
-2222-5555-5555---------------------------------------------|
-0000-5555-3333---------------------------------------------|
------3333--------------------------------------------------|


Chorus

----------0--5---9---11-9--9------------------------------|
----------2--5----10-------10-----------------------------|
----5-7---2--6--9----------9------------------------------|
----5-7---------------------------------------------------|
----3-5---------------------------------------------------|
----------------------------------------------------------|


Enjoy!

-KingOat