Oatmeal Dog - Freak Boy Text Guitar Tab

Learn the song with the online tablature player
Freak Boy
Oatmeal Dog

Drop D

intro
-------------------------------------------------|
-------------------------------------------------|
-------------------------------------------------|
0000-3-0000-535---0000-3-0000-535----------------|
0000-3-0000-535---0000-3-0000-535----------------|
0000-3-0000-535---0000-3-0000-535----------------| Ya-OOO!!

lyrics

------------------------------------------------|
------------------------------------------------|
------------------------------------------------|
0000-3-0000-3-0000-3-0000-535-------------------|
0000-3-0000-3-0000-3-0000-535-------------------|
0000-3-0000-3-0000-3-0000-535-------------------|

bridge

------------------------------------------------|
------------------------------------------------|
------------------------------------------------|
000-3-000-53-000-3-000-53-----------------------|
000-3-000-53-000-3-000-53-----------------------|
000-3-000-53-000-3-000-53-----------------------|

Fast part...
------------------------------------------------|
------------------------------------------------|
------------------------------------------------|
0543-0543-0543-057---0543-0543-0543-0575--------|
0543-0543-0543-057---0543-0543-0543-0575--------|
0543-0543-0543-057---0543-0543-0543-0575--------|

then it goes back to the intro and then the bridge...

simple enough.  listen to the song and you'll learn it

-kingoat