Obituary - Pressure Point Text Guitar Tab

Learn the song with the online tablature player
                            Version 1.0 August 2001

Notation Used:

. - Palm mute

\ - Slide down

/ - Slide up

 Here's another great Obituary song for you. I hope you like it.

 Fill 1
||--------------------------||
||--------------------------||
||--------------------------||
||--------------------------||
||-----------3-----------5--||
||--0-0-0-0--1--0-0-0-0--3--||
pm  . . . .     . . . .

Riff 1
A
|---------------------------------------------------------|
|---------------------------------------------------------|
|---------------------------------------------------------|
|-----5-\-6----3-\-4----6-/-5----7-\-8----3-\-4----6-/-5--|
|-----3-\-4----1-\-2----4-/-3----5-\-6----1-\-2----4-/-3--|
|--0------------------------------------------------------|
pm .

Riff 2
|-------------------------------------------------------------------|
|-------------------------------------------------------------------|
|-------------------------------------------------------------------|
|-------------------------------------------------------------------|
|-----------3-----------5-------------------------------------------|
|--0-0-0-0--1--0-0-0-0--3--0-0-0-0-7-6-6-5-7-6-6-5-7-6-6-5-7-6-6-5--|
pm . . . .     . . . .     . . . . . . . . . . . . . . . . . . . .

Riff 3
|---------------------------------------------------------------------|
|---------------------------------------------------------------------|
|---------------------------------------------------------------------|
|--7--------4----3-----5--------7--------4----------------------------|
|--5--------2----1-----3--------5--------2-------------3-----------5--|
|--5--------2----1-----3--------5--------2----0-0-0-0--1--0-0-0-0--3--|
pm                                          . . . .       . . . .

Riff 1
B
|---------------------------------------------------------|
|---------------------------------------------------------|
|---------------------------------------------------------|
|--------------------------------7-\-6----3-\-4----6-/-5--|
|--------------------------------5-\-4----1-\-2----4-/-3--|
|--0--0--0--0--0--0--0--0--0--0---------------------------|
pm .  .  .  .  .  .  .  .  .  .

SONG STRUCTURE:

Fill ( 1 ) x 1

Riff
1-A) x 4

Riff
2 ) x 4

Riff
1-A) x 4

Riff
2 ) x 6
Fill ( 1 ) x 1

Riff
3 ) x 2
Gtr I  Riff (1-A) x 8
Gtr II Riff (1-B) x 4 Riff (1-A) x 4

Riff
2 ) x 4
Fill ( 1 ) x 1 End!

 Check out my other Obituary tabs,"Dying, Body bag, Corrosive and Rewind."
Let me know what you think.