Obituary - Words Of Evil Text Guitar Tab

Learn the song with the online tablature player
                               January 2001

Riff 1

 "Words of Evil!!...evil...evil"

|-------------------------------|x6
|-------------------------------|
|-------------------------------|
|-------------------------4-----|
|--2--------5-4--2--------2-3---|
|--0-00000--3-2--0-00000----1---|

Riff 2

|-------------------------------|x8
|-------------------------------|
|-------------------------------|
|------------6-5----------------|
|-----2-4-6--4-3--6-5-4---------|
|-----0-2-4-------4-3-2---------|

Riff 3

|-------------------------------|
|-------------------------------|
|-------------------------------|
|-------------------------6-----|
|-------------------------4-----|
|--3-33333-33333-333-3/2--------|

Riff 4

|--------------------------------------|
|--------------------------------------|
|--------------------------------------|
|--------------------------------------|
|--------------------------------------|
|-33333333-44444444-33333333-77777777--|

Riff 5
                                  "Lie Alone!"
|--------------------------------------|
|--------------------------------------|
|-------------5------------------------|
|--2----------3----------4---5---------|
|--0----------3----------2---3---------|
|--0---------------------2---3---------|

Riff 6

|----------------|
|----------------|
|----------------|
|----------------|
|--2---6-5-4-----|
|--0---4-3-2-----|

Riff 7

|--------------------------------------|
|--------------------------------------|
|--------------------------------------|
|----------------------4---5-----------|
|----------------------2-3-3-----------|
|----111111111111111-----1-------------|

Riff 7a

|--------------------------------------|
|--------------------------------------|
|--------------------------------------|
|----------------------4---5-----------|
|----------------------2-3-3-3---------|
|----111111111111111-----1---1---------|

SONG STRUCTURE:
~~~~~~~~~~~~~~

RIFF 1
X6)

RIFF 2
X8)

RIFF 3
X6)

RIFF 4
X2)

RIFF 3
X4)

RIFF 4
X2)

RIFF 5
X1)

RIFF 6
X8)

RIFF 3
X4)

RIFF 4
X2)

RIFF 7
X3)

RIFF 7A
X1)