Ocean Blue - Ballerina Out Of Control Text Guitar Tab

Learn the song with the online tablature player
Genre: Dream Rock
The song is pretty catchy

If you hear this song over and over again, you can follow
the tab.

The guitar starts playing at the beginning like this

     A                B
----------------|----------------|
--------0-------|----------------|
----------0-----|----------------|
----------------|----------------|
---2h3----------|---2h3p2--------|
--3-------------|--3-----3-------|

When the drums are playing
start playing these riffs twice (each)

At every beginning of the two verses
play riff A & B only once
When the melody changes, play both riff A & B twice

At every "As she twist and twirls..."
Play this

     C
----------------|----------------|----------------|----------------|
--0-------------|--0-------------|--0-------------|--0-------------|
----0-----------|----0-----------|----0-----------|----0-----------|
------0---------|------0---------|------0---------|----------------|
----------------|----------------|----------------|----------------|
----------------|----------------|----------------|----------------|

----------------|----------------|
--3-------------|--3------3------|
----3-----------|----3-----------|
------3---------|------3---------|
----------------|----------------|
----------------|----------------| riff D

----------------|----------------|
--0-------------|--0---------0---|
----0-----------|----0-----------|
------0---------|------0---------|
----------------|----------------|
----------------|----------------| riff E (Repeat this 3 times)

Then come back to riff D
Then back to riff E

It's the same concept throughout the song

While you hear the song coming to its finish,
Play riff A twice then do this

----------------|----------------|----------------|----------------|
--------0-------|--0-------------|--0-------------|--0-------------|
----------0-----|----0-----------|----0-----------|----0-----------|
------------0---|------0---------|------0---------|----------------|
---2h3----------|----------------|----------------|----------------|
--3-------------|----------------|----------------|----------------|

Then strum a partial G chord (don't know my chords by name)

----------------|
-------0--------|
-----0----------|
---0------------|
-2--------------|
--3-------------|

If you can play by ear, you will understand it in no time.

In the words of Bill and Ted
"Be excellent to each other and party on, dudes!"