Oceana - Antlophobia Text Guitar Tab

Learn song with the online tabulature player
Rhythm: Clean Distortion
|----------------------------------------------------|--------------|
|----------------------------------------------------|--------------|
|----------------------------------------------------|--------------|
|--------9---------9---------4--------4---------8----|-8-8-8-8-8-8-8|
|-----6----------6---------1--------2--------5-------|-5-5-5-5-5-5-5|
|-6-6--------6-6-------1-1------2-2-------5----------|-5-5-5-5-5-5-5|

Lead: Clean Distortion, Delay, Tremolo Picked
|----------------------------------------------------------|
|----------------------------------------------------------|
|-13------15-------16--------11--------9-------------------|
|----------------------------------------------------------|
|----------------------------------------------------------|
|----------------------------------------------------------|

Both Guitars: Breakdown
|----------------------------------------------------------|
|----------------------------------------------------------|
|----------------------------------------------------------|
|----------------------------------------------------------|
|----------------------------------------------------------|
|-6-0-6 \9-6-0-5-6 \12/ 6-5-0------------------------------|

|-----------------------------------------------------------|
|-----------------------------------------------------------|
|-----------------------------------------------------------|
|-----------------------8-8-8-8-8--8-8-8-8-8----------------|
|-----------------------5-5-5-5-5--5-5-5-5-5----------------|
|-6-0-6 \9-6-0-5-6-12-6-5-5-5-5-5--5-5-5-5-5----------------|


|----------------------------------------------------------|
|----------------------------------------------------------|
|----------------------------------------------------------|
|-9-9-9--9---9-9-9--9---4-4-4--4---8-8-8--8----------------|
|-6-6-6--6---6-6-6--6---2-2-2--2---5-5-5--5----------------|
|-6-6-6--6---6-6-6--6---2-2-2--2---5-5-5--5----------------|



|------------------------------------------------------------|
|------------------------------------------------------------|
|------------------------------------------------------------|
|-9~---------------------------------------------------------|
|-6~---------------------------------------------------------|
|-6~---------------------------------------------------------|