Oceansize - Ornamentthe Last Wrongs Text Guitar Tab

Learn the song with the online tablature player
The following tab is a mixture of studio and live. It's not complete, so might appear
overly verbose in places and lacking in others. I'm not a good musician, so am getting
this out there in the hope others can help improve upon it.

NOTES - A A# B C D E F G
SAFE NOTES

  1  2  3  4  5  6  7  8   9   10  11  12  13  14  15  16  17

d|0--2--3--5--7--8--9--10--12--14--15--17--19--20--21--22--24|

A|0--1--2--3--5--7--8--10--12--13--14--15--17--19--20--22--24|

F|0--2--4--5--6--7--9--11--12--14--16--17--18--19--21--23--24|

C|0--2--4--5--7--9--10-11--12--14--16--17--19--21--22--23--24|

G|0--2--3--4--5--7--9--10--12--14--15--16--17--19--21--22--24|

D|0--2--3--5--7--8--9--10--12--14--15--17--19--20--21--22--24|

INTRO PART 1
PLAYED 3 TIMES

There are 5 alternatives here, I personally go for the last of these, but from watching
video I'm not sure it's what Durose played live. The notes should be though.

Notes - F C F B A A C
Notes used - A A# B C F

d|--------------------------|
A|------------3-------------|
F|------6-4-----------------|
C|----5---------------------|
G|--5-------2---------------|
D|3-------------------------|

 OR

d|--------------------------|
A|------------3-------------|
F|----0-6-4-----------------|
C|--0-----------------------|
G|----------2---------------|
D|3-------------------------|

 OR

d|--------------------------|
A|------2-----3-------------|
F|----0---4-----------------|
C|--0-----------------------|
G|----------2---------------|
D|3-------------------------|

OR

d|--------------------------|
A|------2-------------------|
F|----0---4---7-------------|
C|--0-----------------------|
G|--------------------------|
D|3---------7---------------|

OR

d|--------------------------|
A|------2-0----3------------|
F|----0---------------------|
C|--0-----------------------|
G|----------2---------------|
D|3-------------------------|

INTRO PART 2
PLAYED ONCE AFTER EACH INTRO PART 1

Same as before, I typically go for the latter of these two.

Notes - D A D D C A# A
Notes used - A A# C D

d|--------------------------|
A|--------------------------|
F|------9-7-----------------|
C|------------9-------------|
G|----7---------------------|
D|0-7-------8---------------|

 OR

d|------0-------------------|
A|--------3-----------------|
F|------------4-------------|
C|----2---------------------|
G|--2------3----------------|
D|0-------------------------|

INTRO BACKGROUND

This part is (was...) played by Vennart. This part should be taken as a rough guide,
There is more to it than written here.

Notes used - F E G A# C

Clean (delay)
Tremolo picked
Starts at 0:28

d|--------------------------|
A|8888888888888-777777777777|
F|--------------------------|
C|--------------------------|
G|--------------------------|
D|--------------------------|

d|------------------------------------------------|
A|8888888888888888888-101010101010-777777777777777|
F|------------------------------------------------|
C|------------------------------------------------|
G|------------------------------------------------|
D|------------------------------------------------|

d|-----------------------------------------------------------|
A|13-13-13-13-13-13-13-13-13-13-13-13-15-15-15-15-15-15-15-15|
F|-----------------------------------------------------------|
C|-----------------------------------------------------------|
G|-----------------------------------------------------------|
D|-----------------------------------------------------------|

BURSTS
Starts at 2:19

Chords used - Am B5 C5 D5 C5 A#5
Notes used (intro) - F C F C A#
Notes used (end) - G F E C E

d|--------------------------|
A|------2-0-----------------|
F|----0---------------------|
C|--0-----------------------|
G|--------------------------|
D|3-------------------------|

Distortion

As with the rest of the song, feel free to use power chords instead.

d|222222--------------------|
A|333333--------------------|
F|444444--------------------|
C|444444--------------------|
G|222222--------------------|
D|--------------------------|

(Keys plays INTRO 1 once)

d|222222--------------------|
A|333333--------------------|
F|444444--------------------|
C|444444--------------------|
G|222222--------------------|
D|--------------------------|

(Keys plays INTRO 1 once)

d|222------------------------|
A|333------------------------|
F|444-666--777--999--7--5555-|
C|444-666--777--999--7--5555-|
G|222-444--555--777--5--3333-|
D|---------------------------|

(Keys plays INTRO 1 once)

d|222222--------------------|
A|333333--------------------|
F|444444--------------------|
C|444444--------------------|
G|222222--------------------|
D|--------------------------|

d|--------------------------|
A|------2-0-----------------|
F|----0---------------------|
C|--0-----------------------|
G|--------------------------|
D|3-------------------------|

d|222222--------------------|
A|333333--------------------|
F|444444--------------------|
C|444444--------------------|
G|222222--------------------|
D|--------------------------|

d|--------------------------|
A|------2-0-----------------|
F|----0---------------------|
C|--0-----------------------|
G|--------------------------|
D|3-------------------------|

d|222------------------------|
A|333------------------------|
F|444-666--777--999--7--5555-|
C|444-666--777--999--7--5555-|
G|222-444--555--777--5--3333-|
D|---------------------------|

2:56

d|--------------------------|
A|--------------------------|
F|14-12-11----11~~~~~~------|
C|---------12---------------|
G|--------------------------|
D|--------------------------|

QUIET BIT

Play 4 times.
From 3:00 - 3:58

Notes in brackets are played by Vennart, who is arpeggiating chords after/over each of
these sections. I don't know what those chords are apart from the first section, hence
why they are blank.

Notes - E C D C F (A C E)
        E C A G C
        F E C D C F
        G F E

Clean

d|---------------------------|
A|---------------------------|
F|11----------12---------(11)|
C|---12-14-12----------(12)--|
G|-------------------(14)----|
D|---------------------------|

d|--------------------------|
A|--------------------------|
F|11------------------------|
C|---12-------12------------|
G|------14-12---------------|
D|--------------------------|

d|--------------------------|
A|--------------------------|
F|12-11----------12---------|
C|------12-14-12------------|
G|--------------------------|
D|--------------------------|

d|--------------------------|
A|--------------------------|
F|14-12-11----11------------|
C|---------12---------------|
G|--------------------------|
D|--------------------------|

d|--------------------------|
A|------2-0-----------------|
F|----0---------------------|
C|--0-----------------------|
G|--------------------------|
D|3-------------------------|

Distorted

d|222222--------------------|
A|333333--------------------|
F|444444--------------------|
C|444444--------------------|
G|222222--------------------|
D|--------------------------|

d|--------------------------|
A|------2-0-----------------|
F|----0---------------------|
C|--0-----------------------|
G|--------------------------|
D|3-------------------------|

d|222222--------------------|
A|333333--------------------|
F|444444--------------------|
C|444444--------------------|
G|222222--------------------|
D|--------------------------|

d|--------------------------|
A|------2-0-----------------|
F|----0---------------------|
C|--0-----------------------|
G|--------------------------|
D|3-------------------------|

d|222------------------------|
A|333------------------------|
F|444-666--777--999--7--5555-|
C|444-666--777--999--7--5555-|
G|222-444--555--777--5--3333-|
D|---------------------------|

d|--------------------------|
A|------2-0-----------------|
F|----0---------------------|
C|--0-----------------------|
G|--------------------------|
D|3-------------------------|

d|222222--------------------|
A|333333--------------------|
F|444444--------------------|
C|444444--------------------|
G|222222--------------------|
D|--------------------------|

d|--------------------------|
A|------2-0-----------------|
F|----0---------------------|
C|--0-----------------------|
G|--------------------------|
D|3-------------------------|

d|222222--------------------|
A|333333--------------------|
F|444444--------------------|
C|444444--------------------|
G|222222--------------------|
D|--------------------------|

d|--------------------------|
A|------2-0-----------------|
F|----0---------------------|
C|--0-----------------------|
G|--------------------------|
D|3-------------------------|

d|222------------------------|
A|333------------------------|
F|444-666--777--999--7--5555-|
C|444-666--777--999--7--5555-|
G|222-444--555--777--5--3333-|
D|---------------------------|

PRE-VOCAL SECTION
Starts at 4:36

Distorted

From watching live videos, it seems like the latter of these two options is used. I've
included some "fuller" chords in the first option, but sticking to power chords might be
your best bet. I'm unsure how correct those establishments are.

Chords - D5 C5 A5 A#5 A5 F5
         D5 C5 A5 A#5 A5 C5
         D5 E5 F5 A#5

Notes  - F G F G A G F G C

d|-----------------------------|
A|-----------------------------|
F|9------------9---7---4-------|
C|9---12---9---10--9---5-------|
G|7---12---9---10--9---5-------|
D|----10---7---8---7---3-------|

d|-----------------------------|
A|-----------------------------|
F|9------------9---7-----------|
C|9---12---9---10--9---12------|
G|7---12---9---10--9---12------|
D|----10---7---8---7---10------|

OR

d|-----------------------------|
A|-----------------------------|
F|9---7---4---5---4---4--------|
C|9---7---4---5---4---5--------|
G|7---5---2---3---2---5--------|
D|--------------------3--------|

d|-----------------------------|
A|-----------------------------|
F|9---7---4---5---4---7--------|
C|9---7---4---5---4---7--------|
G|7---5---2---3---2---5--------|
D|-----------------------------|

Clean
4:51

d|----------------------|
A|----------------------|
F|9--11-12--9-----------|
C|9--11-12--10----------|
G|7--9--10--10----------|
D|----------8-----------|

OR

d|----------------------|
A|----------------------|
F|9--11-12--5-----------|
C|9--11-12--5-----------|
G|7--9--10--3-----------|
D|----------------------|

d|---------------------------|
A|------------12----------15-|
F|12-14-12-14----14-12-14----|
C|---------------------------|
G|---------------------------|
D|---------------------------|

VOCALS START

In the studio version, these chords are played faintly before everything kicks off. In
live versions (notably Feed To Feed when Mike covers his eyes) this isn't played. I tend
to play it as I probably look silly covering my eyes like that, and I don't trust
my strap that much.

As before, don't worry about playing the major chord fully.

d|-----------------------------|
A|-----------------------------|
F|9---7---4---5---4---4--------|
C|9---7---4---5---4---5--------|
G|7---5---2---3---2---5--------|
D|--------------------3--------|

d|-----------------------------|
A|-----------------------------|
F|9---7---4---5---4---4--------|
C|9---7---4---5---4---5--------|
G|7---5---2---3---2---5--------|
D|--------------------3--------|

d|----------------------|
A|----------------------|
F|9--11-12--5--7--------|
C|9--11-12--5--7--------|
G|7--9--10--3--5--------|
D|----------------------|

FINALE RHYTHM
Starts at 5:55
This pretty much keeps going until the song finishes.

Distorted

d|xxxx----------------------|
A|xxxx----------------------|
F|xxxx----------------------|
C|xxxx----------------------|
G|xxxx----------------------|
D|xxxx----------------------|

d|-------------------------------------------------------|
A|-------------------------------------------------------|
F|99999--11-11-12-12-12--55555--7--44444--2------5555-4--|
C|99999--11-11-12-12-12--55555--7--44444--2--555-5555-4-5|
G|77777--9--9--10-10-10--33333--5--22222--0--555-3333-2-5|
D|-------------------------------------------333--------3|

d|--------------------------------------|
A|--------------------------------------|
F|99999---7---444---5555---4---444------|
C|99999---7---444---5555---4---555------|
G|77777---5---222---3333---2---555------|
D|-----------------------------333------|

d|-------------------------------------------------------|
A|-------------------------------------------------------|
F|99999--11-11-12-12-12--55555--7--44444--2------5555-4--|
C|99999--11-11-12-12-12--55555--7--44444--2--555-5555-4-5|
G|77777--9--9--10-10-10--33333--5--22222--0--555-3333-2-5|
D|-------------------------------------------333--------3|

d|--------------------------------------|
A|--------------------------------------|
F|99999---7---444---5555---4---444------|
C|99999---7---444---5555---4---555------|
G|77777---5---222---3333---2---555------|
D|-----------------------------333------|

d|--------------------------------------|
A|--------------------------------------|
F|99999--11-11-12-12-12--55555--7--4~~~~|
C|99999--11-11-12-12-12--55555--7--4~~~~|
G|77777--9--9--10-10-10--33333--5--2~~~~|
D|--------------------------------------|

END

FINALE SOLO

This is Vennart's solo in live versions

Notes - D C A A# A F
        F G A F A# C A G F C D C A
        F E C D C A
        F G A F A# C

Notes used - A A# C D E F G

Distorted
Tremolo picked
Starts at 7:28

This first little bit isn't right, but just bend that first (17) note and trem pick it.
These notes should at least sound ok.

d|--------------------------|
A|17-15-12-13-12------------|
F|---------------12---------|
C|--------------------------|
G|--------------------------|
D|--------------------------|

7:43

d|--------------------------------------|
A|--------------------------------------|
F|12-14-16-12-17-19-16-14-12------------|
C|---------------------------12-14-12---|
G|------------------------------------14|
D|--------------------------------------|

d|--------------------------|
A|--------------------------|
F|12-11---------------------|
C|------12-14-12------------|
G|---------------14---------|
D|--------------------------|

d|--------------------------|
A|--------------------------|
F|12-14-16-12-17-19---------|
C|--------------------------|
G|--------------------------|
D|--------------------------|

Durose plays his solo here, which I am not skilled enough to work out. Through the "Safe
notes", YouTube and/or something called "talent", you might be able to work something out.

Tremolo picked

d|--------------------------------------|
A|--------------------------------------|
F|12-14-16-12-17-19-16-14-12------------|
C|---------------------------12-14-12---|
G|------------------------------------14|
D|--------------------------------------|

d|--------------------------|
A|--------------------------|
F|12-11---------------------|
C|------12-14-12------------|
G|---------------14---------|
D|--------------------------|

d|--------------------------|
A|--------------------------|
F|12-14-16-12-17-19-16~~~~~~|
C|--------------------------|
G|--------------------------|
D|--------------------------|

END