Oceansize - Pine Text Guitar Tab

Learn the song with the online tablature player
Intro
|-------------------------------------|
|-----3---3---3---3---3---3---3---3---|
|o---0---0---0---0---0---0---0---0---o|
|o--2---0---2------------------------o|
|--------------2---0---0---0---0------|
|-------------------------------------|

"Was it deadly..."                    "Then what..."
|------------------------------------|-----------|
|-----3---1---3---0---0---0---0------|------1----|
|o---2---0---0---0---0---0---0---0--o|o----0-0--o|
|o--3---0---2-----------------------o|o---------o|
|---------------3---3---3---3---3----|---3-------|
|------------------------------------|-----------|

Verses
same as intro):
|-------------------------------------|
|-----3---3---3---3---3---3---3---3---|
|o---0---0---0---0---0---0---0---0---o|
|o--2---0---2------------------------o|
|--------------2---0---0---0---0------|
|-------------------------------------|

|------------------------------------|-----------|
|-----3---1---3---5---5---5---5------|------1----|
|o---2---0---0---5---5---5---5---5--o|o----0-0--o|
|o--3---0---2-----------------------o|o---------o|
|---------------3---3---3---3---3----|---3-------|
|------------------------------------|-----------|