Oconnor - Hasta Ser Libre Text Guitar Tab

Learn the song with the online tablature player
O'Connor
Hasta Ser Libre
Estamos Pariendo (2006)

Intro/Riff
e|------------------------------------------------------------------|
b|------------------------------------------------------------------|
g|------------------------------------------------------------------|x6
d|------------------------------------------------------------------|
a|---4---5---4---7---4---5---4---4---4---5---4---7---4---0-2-4-2-0--|
d|-4---4---4---4---4---4---4---4---4---4---4---4---4----------------|

Sobre Riff

Van cerrando la puerta el telon se cayo
y la obra del hombre al fin te sacudio
es un trago dificil q vas a tomar
la locura prosigue a pensar del vendabal

e|--------------------------|
b|--------------------------|
g|--------------------------|
d|-4----------2-----------0-|
a|-4----------2-----------0-|
d|-4----------2-----------0-|

  F#5        E5           D5
  puede la estampida atropellar

e|--------------------------|
b|--------------------------|
g|--------------------------|
d|-4----------2-----------9-|
a|-4----------2-----------9-|
d|-4----------2-----------9-|

  F#5        E5           B5
  pueblos que algun dia gritaran

e|--------------------------------|
b|--------------------------------|
g|--------------------------------|
d|-----7---------------------2----|
a|-----7---------------------2----|
d|-----7---------------------2----|

      A5                     E5
  sueña, vuela, con alas de libertad

e|--------------------------|
b|--------------------------|
g|--------------------------|
d|------------0-------------|
a|------------0-------------|
d|------------0-------------|

             D5
      hasta ser libre

e|---------------|
b|---------------|
g|---------------|
d|-4-4--4-4---0--|x4
a|-4-4--4-4---0--|
d|-4-4--4-4---0--|

Hasta ser libre
Hasta ser libre
Soñando para ser libre
Hasta ser libre

Vuelve a comenzar, misma forma que antes.

La columna se quiebra y todo acabo
El embate asesino se lleva lo mejor

Fue una buena forma de escapar
No entregar tu alma a la maldad
Dime, como, pueden tus alas volar
Hasta ser libre

Hasta ser libre
Hasta ser libre
Soñando para ser libreeeee
Hasta ser libre

Riff 2
Pre-Solo)
e|-------------|
b|-------------|
g|-------------|
d|-------------|
a|---4---5---4-|
d|-4---4---4---|

Solo

F#5             E5           D5
Fue una buena forma de escapar
F#5            E5           B5
No entregar tu alma a la maldad
      A5                     E5
dime, como, pueden tus alas volar

Riff 1
F#5          D5
Hasta ser libre
Hasta ser libre
Soñando para ser libre
Hasta ser libre

F#5 A5 F#5 B5 D5
Has-ta ser li bre