Odd Project - Midnight Lullaby Text Guitar Tab

Learn the song with the online tablature player
                         MIDNIGHT LULLABY - Odd Project

Visit my blog for more Odd Project tabs.

e|---0-2/3---0-3/5---0-5/7---8-7-----0-2/3---0-3/5---8-5-----7-----|
B|-------------------------------------------------------7-----8---|
G|-------------------------------0-------------------------------9-|
D|-----------------------------------------------------------------|
A|-----------------------------------------------------------------|
E|-0-------0-------0-------0-------0-------0-------0-------0-------|

e|---0-2/3---0-3/5---0-5/7---8-7-----0-2/3---0-3\2-------|
B|-------------------------------------------------7-7-5-|
G|-------------------------------0-----------------------|
D|-------------------------------------------------------|
A|-------------------------------------------------5-5-3-|
E|-0-------0-------0-------0-------0-------0-------------|

For this next part, listen for the strumming pattern.
The following chords are used respectively:

e|---7---5---3---|
B|---8---7---5---|
G|---9---7---5---|
D|---9---7---5---|
A|---7---5---3---|
E|---------------|

e|---3-----3-------5-----5-------7-----7------7---|
B|-----5-----5-------7-----7-------8-----10-------|
G|----------------------------------------------9-|
D|------------------------------------------------|
A|-3-----3-----3-5-----5-----5--------------------|
E|-----------------------------0-----0------0-----|

e|---3-----3-------5-----5-------5-----5-------7-----7-|
B|-----5-----5-------7-----7-------7-----7-------8-----|
G|-----------------------------------------------------|
D|-----------------------------------------------------|
A|-3-----3-----3-5-----5-----5-6-----6-----6-----------|
E|-------------------------------------------0-----0---|

e|---3-----3-------5-----5-------2-----2-----3------3-----3------5-|
B|-----5-----5-------7-----7-------0-----0------------5-----5----7-|
G|---------------------------------------------------------------7-|
D|---------------------------------------------------------------7-|
A|-3-----3-----3-5-----5-----5-2-----2-----2------3-----3-----3--5-|
E|-----------------------------------------------------------------|

     A
e|-----------------------------------------------------|
B|-8--8-8-x-x-7--7-7--7--x-x-8--8-8-x-x-5--5-5--5--x-x-|
G|-----------------------------------------------------|
D|-9--9-9-x-x-7--7-7--7--x-x------------5--5-5--5--x-x-|
A|-7--7-7-x-x-5--5-5--5--x-x-7--7-7-x-x-3--3-3--3--x-x-|
E|---------------------------5--5-5-x-x----------------|

     B
e|-----------------------------------------------------|
B|-8--8-8-x-x-7--7-7--7--x-x-8--x-7-x-x-5--5-5--5--x-x-|
G|-----------------------------------------------------|
D|-9--9-9-x-x-7--7-7--7--x-x------------5--5-5--5--x-x-|
A|-7--7-7-x-x-5--5-5--5--x-x-7--x-7-x-x-3--3-3--3--x-x-|
E|---------------------------5--x-5-x-x----------------|

e|----------------------|
B|-8--8-8-x-x-7-------5-|
G|----------------------|
D|-9--9-9-x-x-7-------5-|
A|-7--7-7-x-x-5-------3-|
E|----------------------|

     C
e|--------------------------------------------------|
B|--------------------------------------------------|
G|-7--7--7-7--7-7--7/9--11--11--11-11--11-11--11/14-|
D|--------------------------------------------------|
A|-5--5--5-5--5-5--5/7--9---9---9--9---9--9---9-/12-|
E|--------------------------------------------------|

     D
e|-----------------------------------------------------------|
B|-----------------------------------------------------------|
G|-12--12--12-12--12-12--12/16--14--14--14-16-x-14-x-12-x-14-|
D|-----------------------------------------------------------|
A|-10--10--10-10--10-10--10/14--12--12--12-14-x-12-x-10-x-12-|
E|-----------------------------------------------------------|

e|---------------------------------|
B|---------------------------------|
G|-12--12--12-12--12-12--12/14--12-|
D|---------------------------------|
A|-10--10--10-10--10-10--10/12--10-|
E|---------------------------------|

| /  slide up
| \  slide down
| h  hammer-on
| p  pull-off
| ~  vibrato
| +  harmonic
| x  Mute note