Odyssice - In Your Eyes Text Guitar Tab

Learn song with the online tabulature player
Artist - Odyssice
                                      -----------------
                                     Song - In Your Eyes
                                     -------------------
                                     Album - Impressions
                                     -------------------  

                                       Check Us Out At   
                               www.rockmusicbackingtracks.com
                             ----------------------------------

Piano Intro
-----------


00:17
[--------------------------|-----------------h-p-s-----b----]
[fade in-------h-----h-p---|-----------h----6-8-6\5---5--5--]
[volume--7--5-5-7---5-7-5--|-----7--5-5-7-------------------]
[--7-----------------------|--7-----------------------------]
[--------------------------|--------------------------------]
[--------------------------|--------------------------------]


[---p---------------------|----------------------------------]
[--6-5-------s-s-------s--|----------------------------------]
[------7-5--7\9\7-5-7--\--|--2-3-----h--2-3-----h-p-s--------]
[-------------------------|------5--3-5-----5--3-5-3\2-3-5---]
[-------------------------|----------------------------------]
[-------------------------|----------------------------------]


[--------------------------|-------------------h-p---]
[fade in-------h-----h-p---|-----------h----6-5-6-5--]
[volume--7--5-5-7---5-7-5--|-----7--5-5-7------------]
[--7-----------------------|--7----------------------]
[--------------------------|-------------------------]
[--------------------------|-------------------------]


[---p---------------------|----------------------------------]
[--6-5-------s-s-------s--|----------------------------------]
[------7-5--7\9\7-5-7--\--|--2-3-----h--2-3-----h-p-s--------]
[-------------------------|------5--3-5-----5--3-5-3\2-3-5---]
[-------------------------|----------------------------------]
[-------------------------|----------------------------------]


01:45
fade in with vol
      s            s
[--15-\-17-17---15-\-17-17--13--12--]
[-----------------------------------]
[-----------------------------------]
[-----------------------------------]
[-----------------------------------]
[-----------------------------------]

02:00
[--------------------------|-----------------h-p-s-----b----]
[fade in-------h-----h-p---|-----------h----6-8-6\5---5--5--]
[volume--7--5-5-7---5-7-5--|-----7--5-5-7-------------------]
[--7-----------------------|--7-----------------------------]
[--------------------------|--------------------------------]
[--------------------------|--------------------------------]


[---p---------------------|----------------------------------]
[--6-5-------s-s-------s--|----------------------------------]
[------7-5--7\9\7-5-7--\--|--2-3-----h--2-3-----h-p-s--------]
[-------------------------|------5--3-5-----5--3-5-3\2-3-5---]
[-------------------------|----------------------------------]
[-------------------------|----------------------------------]


02:44                                                               s
[---s----------------------------------------|----------s--10-12-13-\-15--]
[--8\10-10--8----8-10---8-----------------s--|--10-11-13\-----------------]
[-------------10----------10-9-10-9----7--\--|----------------------------]
[-----------------------------------10-------|----------------------------]
[--------------------------------------------|----------------------------]
[--------------------------------------------|----------------------------]

02:59
fade in with vol
    s            s
[--15-\-17-17---15-\-17-17--13--12--13--]
[---------------------------------------]
[---------------------------------------]
[---------------------------------------]
[---------------------------------------]
[---------------------------------------]