Odyssice - Senkan Text Guitar Tab

Learn song with the online tabulature player
Artist - Odyssice
                                      -----------------
                                        Song - Señkan
                                        -------------
                                     Album - Impressions
                                     -------------------  

                                       Check Us Out At   
                               www.rockmusicbackingtracks.com
                             ----------------------------------


Piano Intro
------------

00:43
[---------------------------|--------------------------------------]
[---------------------------|--------p--s---br---p-s---------------]
[--10--9--9--7--------------|--10--12-10\9--9--10-9\7--------------]
[---------------8--7--6--2--|--------------------------8--7--6--2--]
[---------------------------|--------------------------------------]
[---------------------------|--------------------------------------]

01:41
[---------------|-------------------|-----------------------------]
[--------p--s---|---p-h----h--------|-----------s-----s------s----]
[--10--12-10\9--|--7-5-7--5-7-5-----|--10-----10\12-12\14--14\15--]
[---------------|----------------7--|------14---------------------]
[---------------|-------------------|-----------------------------]
[---------------|-------------------|-----------------------------]

                   01:55
[------------------|---------------|-------------------]
[--13-11-10--b--s--|--------p--s---|---p-h----h--------]
[-----------12--\--|--10--12-10\9--|--7-5-7--5-7-5-----]
[------------------|---------------|----------------7--]
[------------------|---------------|-------------------]
[------------------|---------------|-------------------]


[-------------------------------------]
[----------------10--11-10------b--s--]
[--7--9--10--12------------12--12--\--]
[-------------------------------------]
[-------------------------------------]
[-------------------------------------]

02:09                    p
[-----------10----13---12-10-12-|--10--------b---brp-------]
[-----s--10----10---------------|-----13-10-13--13--10-13--]
[--5--\-------------------------|--------------------------]
[-------------------------------|--------------------------]
[-------------------------------|--------------------------]
[-------------------------------|--------------------------]

02:16          s                       s
[-----s--13--15\17-17--18---20-18-17-17\--]
[--10-\-----------------------------------]
[-----------------------------------------]
[-----------------------------------------]
[-----------------------------------------]
[-----------------------------------------]

                         p
[-----------10----13---12-10-12-10-----rb---p-------------------h--p-------]
[-----s--10----10------------------13-13--11-10-11---11-13-11-10-11-10-----]
[--5--\----------------------------------------------------------------12--]
[--------------------------------------------------------------------------]
[--------------------------------------------------------------------------]
[--------------------------------------------------------------------------]


[-------------------------------p-----------]
[--10---rbp---------------10--11-10------b--]
[------12--10-----9-10-12-----------12--12--]
[--------------12---------------------------]
[-------------------------------------------]
[-------------------------------------------]


02:38
[---------------|-------------------|-----------------------------]
[--------p--s---|---p-h----h--------|-----------s-----s------s----]
[--10--12-10\9--|--7-5-7--5-7-5-----|--10-----10\12-12\14--14\15--]
[---------------|----------------7--|------14---------------------]
[---------------|-------------------|-----------------------------]
[---------------|-------------------|-----------------------------]


[------------------|---------------|-------------------]
[--13-11-10--b--s--|-----------s---|---p-h----h--------]
[-----------12--\--|--10--12-10\9--|--7-5-7--5-7-5-----]
[------------------|---------------|----------------7--]
[------------------|---------------|-------------------]
[------------------|---------------|-------------------]


[-------------------------------------------]
[----------------10--11-10------b---b---b-r-]
[--7--9--10--12------------12--12--12--12---]
[-------------------------------------------]
[-------------------------------------------]
[-------------------------------------------]


04:00
volume pedal or guitar volume

[--10--12--13--15--17--]
[----------------------]
[----------------------]
[----------------------]
[----------------------]
[----------------------]

           h
[-----22-20-22-20-17--15-----15-17-18-17-15-20-18-17--------]
[--15---------------------18-------------------------18-----]
[-----------------------------------------------------------]
[-----------------------------------------------------------]
[-----------------------------------------------------------]
[-----------------------------------------------------------]

           h                         b  brp
[-----22-20-22-20-17--15-----15-17--15-15--13--]
[--15---------------------18-------------------]
[----------------------------------------------]
[----------------------------------------------]
[----------------------------------------------]
[----------------------------------------------]

        h                                                           s
[----22-20-22-20-17--15-----15-17-18-17-15-20-18-17---------------15\17-17-]
[-15---------------------18-------------------------18---15-17-18----------]
[--------------------------------------------------------------------------]
[--------------------------------------------------------------------------]
[--------------------------------------------------------------------------]
[--------------------------------------------------------------------------]


04:38     h                                                     s  s
[----12-10-12-10--------|--------------------10------------12-15\17\19-----]
[----------------12-10--|-----10-12-13-12-10----13-12----------------------]
[--9--------------------|--12-------------------------12-9-----------------]
[-----------------------|--------------------------------------------------]
[-----------------------|--------------------------------------------------]
[-----------------------|--------------------------------------------------]

04:51
[----------------|------------------|------------------------------]
[--------p--s----|---p-h----h-------|------------s-----s------s----]
[--12--14-12\11--|--9-7-9--7-9-7----|--12------12\14-14\16--16\17--]
[----------------|---------------9--|------16----------------------]
[----------------|------------------|------------------------------]
[----------------|------------------|------------------------------]


                   05:05                     
[-----------------|----------------|------------------|-----------------]
[--15-13-12--b-s--|--------p--s----|---p-h----h-------|-----------------]
[-----------14-\--|--12--14-12\11--|--9-7-9--7-9-7----|--9-11-12-14-16--]
[-----------------|----------------|---------------9--|-----------------]
[-----------------|----------------|------------------|-----------------]
[-----------------|----------------|------------------|-----------------]


[------------------]
[--13-12------b-s--]
[--------14--14-\--]
[------------------]
[------------------]
[------------------]


05:20                   p
[-----------12----15--14-12-14--|--12--------b---rbp------s--]
[-----s--12----12---------------|-----15-12-15--15--12-15-\--]
[--7--\-------------------------|----------------------------]
[-------------------------------|----------------------------]
[-------------------------------|----------------------------]
[-------------------------------|----------------------------]

               s  s                      s
[-----s--15--15\17\19-19-20-20-22-20-19--\--]
[--12-\-------------------------------------]
[-------------------------------------------]
[-------------------------------------------]
[-------------------------------------------]
[-------------------------------------------]

                        p
[---------12-----15--14-12-14-12------rb---p-------------------h--p---]
[---s--12----12------------------15--15--13-12-13--13-15-13--12-13-12-]
[-7-\-----------------------------------------------------------------]
[---------------------------------------------------------------------]
[---------------------------------------------------------------------]
[---------------------------------------------------------------------]

[------------------------------------------|----------------]
[-----12----brp-------15-13-12-------------|----------------]
[--14-----14--12---------------12--12--12--|----------------]
[------------------14----------------------|------10-12-14--]
[------------------------------------------|--12------------]
[------------------------------------------|----------------]