Of Mice And Men - The Flood Text Guitar Tab

Learn the song with the online tablature player
Intro pt. 1:
|---------------------------------------------------------|
|---------------------------------------------------------|
|---------------------------------------------------------|
|---------------------------------------------------------|
|------------------------------------------------11-------|
|-0-0-0--0--0--0-0-0--0--0--0-0-0--0--0--9-11-12----12-11-|
  * * *        * * *        * * *        *  *  *  *  *  *
|----------------------------------------------------|
|----------------------------------------------------|
|----------------------------------------8-8-8-8-8-8-|
|----------------------------------------x-x-x-x-x-x-|
|----------------------------------------6-6-6-6-6-6-|
|-0-0-0--0--0--0-0-0--0--0--0-0-0--0--0--------------|
  * * *        * * *        * * *
|---------------------------------------------------------|
|---------------------------------------------------------|
|---------------------------------------------------------|
|---------------------------------------------------------|
|------------------------------------------------11-------|
|-0-0-0--0--0--0-0-0--0--0--0-0-0--0--0--9-11-12----12-11-|
  * * *        * * *        * * *        *  *  *  *  *  *
|----------------|
|----------------|
|-5-------8------|
|-x-(x12)-x-(x7)-|
|-3-------6------|
|----------------| BLEEAAGGHH!

Intro pt. 2:
|---------------------------------------------------------|
|---------------------------------------------------------|
|---------------------------------------------------------|
|---------------------------------------------------------|
|------------------------------------------------11-------|
|-0-0-0--0--0--0-0-0--0--0--0-0-0--0--0--9-11-12----12-11-|
  * * *        * * *        * * *        *  *  *  *  *  *
|----------------------------------------------------|
|----------------------------------------------------|
|----------------------------------------8-8-8-------|
|----------------------------------------x-x-x-------|
|----------------------------------------6-6-6--6ph^-|
|-0-0-0--0--0--0-0-0--0--0--0-0-0--0--0--------------|
  * * *        * * *        * * *
|---------------------------------------------------------|
|---------------------------------------------------------|
|---------------------------------------------------------|
|---------------------------------------------------------|
|------------------------------------------------11-------|
|-0-0-0--0--0--0-0-0--0--0--0-0-0--0--0--9-11-12----12-11-|
  * * *        * * *        * * *        *  *  *  *  *  *
|----------------|
|----------------|
|-5-------8------|
|-x-(x12)-x-(x7)-|
|-3-------6------|
|----------------|

Verse pt. 1:
|---------------------------------------------------------|
|---------------------------------------------------------|
|---------------------------------------------------------|
|---------------------------------------------------------|
|------------------------------------------------11-------|
|-0-0-0--0--0--0-0-0--0--0--0-0-0--0--0--9-11-12----12-11-|
  * * *        * * *        * * *        *  *  *  *  *  *
|--------------------------------------------------|
|--------------------------------------------------|
|--------------------------------------------------|
|--------------------------------------------------|
|----------------------------------------6ph^------|
|-0-0-0--0--0--0-0-0--0--0--0-0-0--0--0-------6ph^-|
  * * *        * * *        * * *
|---------------------------------------------------------|
|---------------------------------------------------------|
|---------------------------------------------------------|
|---------------------------------------------------------|
|------------------------------------------------11-------|
|-0-0-0--0--0--0-0-0--0--0--0-0-0--0--0--9-11-12----12-11-|
  * * *        * * *        * * *        *  *  *  *  *  *
|--------------------|
|--------------------|
|-5-------8----------|
|-x-(x12)-x-(x7)-----|
|-3-------6----------|
|----------------12/-|

Verse pt. 2:
|----------------------------------------------------|
|----------------------------------------------------|
|----------------------------------------8--8--8--8--|
|----------------------------------------x--x--x--x--|
|----------------------------------------6--6--6--6--|
|-0-0-0--0--0--0-0-0--0--0--0-0-0--0--0--------------|
  * * *        * * *        * * *
|----------------------------------------------------------------|
|----------------------------------------------------------------|
|----------------------------------------------------------------|
|----------------------------------------------------------------|
|----------------------------------------------6-----------6-----|
|-0-0-0--0--0--0-0-0--0--0--0-0-0--0--0--4-6-7---7-6-4-6-7---7-6-|
  * * *        * * *        * * *        * * * * * * * * * * * *
|----------------------------------------------------|
|----------------------------------------------------|
|----------------------------------------8--8--8--8--|
|----------------------------------------x--x--x--x--|
|----------------------------------------6--6--6--6--|
|-0-0-0--0--0--0-0-0--0--0--0-0-0--0--0--------------|
  * * *        * * *        * * *
|-------------------------|
|-------------------------|
|-5--------8--------------|
|-x--------x--------------|
|-3--------6--------------|
|--------------------12^v-|

Breakdown
(x2)
|-------------------------------------------------------------------|
|-------------------------------------------------------------------|
|-------------------------------------------------------------------|
|-------------------------------------------------------------------|
|-0-0-0-0---0-0-0-0-0-0-0-0-0-0---0-0-0-0-0-0-0-0-0-0---0-0-0-0-0-0-|
|-0-0-0-0---0-0-0-0-0-0-0-0-0-0---0-0-0-0-0-0-0-0-0-0---0-0-0-0-0-0-|
  * * * *   * * * * * * * * * *   * * * * * * * * * *   * * * * * *
|-------------------------|
|-------------------------|
|-5-5-5-5-5-5-8-8-8-8-8-8-|
|-x-x-x-x-x-x-x-x-x-x-x-x-|
|-3-3-3-3-3-3-6-6-6-6-6-6-|
|-------------------------|

Interlude
|---------------|
|---------------|
|-5------8------|
|-x------x------|
|-3------6------|
|---------------|

|-------------------------------------------------------------------|
|-------------------------------------------------------------------|
|-------------------------------------------------------------------|
|-------------------------------------------------------------------|
|-0-0-0-0---0-0-0-0-0-0-0-0-0-0---0-0-0-0-0-0-0-0-0-0---0-0-0-0-0-0-|
|-0-0-0-0---0-0-0-0-0-0-0-0-0-0---0-0-0-0-0-0-0-0-0-0---0-0-0-0-0-0-|
  * * * *   * * * * * * * * * *   * * * * * * * * * *   * * * * * *
|---------------|
|---------------|
|-5-5-5-5-5-5-8-|
|-x-x-x-x-x-x-x-|
|-3-3-3-3-3-3-6-|
|---------------|

Chorus
(x4)
|------------------------|      |-------------------------|
|------------------------|      |-------------------------|
|------------------------|      |-------------------------|
|-10/12-12-12-12^v-12-12-|(x3)  |-17-17-17-17-13-13-13-13-|
|------------------------|THEN->|-------------------------|
|------------------------|      |-------------------------|
 BEEP...
 BEEP...
 BEEP...

Verse
(x2)
|-----------------------------------|
|-----------------------------------|
|-----------------------------------|
|-----------------------------------|
|-0-0-0-0-0--0-0-0-0-0----0-0-0-0-0-|
|-0-0-0-0-0--0-0-0-0-0----0-0-0-0-0-|
  * * * * *  * * * * *    * * * * *
|------------------------------------------|
|------------------------------------------|
|------------------------------------------|
|----------------------5-5-5-5-5-1-1-1-1-1-|
|-0-0-0-0-0--0-0-0-0-0-5-5-5-5-5-1-1-1-1-1-|
|-0-0-0-0-0--0-0-0-0-0-5-5-5-5-5-1-1-1-1-1-|
  * * * * *  * * * * *
Breakdown
|-----------------------|
|-(Left   )---(Right  )-|
|-(Speaker)---(Speaker)-|
|-0-0-0-0-0---0-0-0-0-0-|
|-0-0-0-0-0---0-0-0-0-0-|
|-1-1-1-1-1---1-1-1-1-1-|
  * * * * *   * * * * *
|-------------------------(Right  )-|
|-------------------------(Speaker)-|
|-------------------------(Only   )-|
|-0-0-0-0-0--0-0-0-0-0----0-0-0-0-0-|
|-0-0-0-0-0--0-0-0-0-0----0-0-0-0-0-|
|-1-1-1-1-1--1-1-1-1-1----1-1-1-1-1-|
  * * * * *  * * * * *    * * * * *
|-----------------------------------------|
|-----------------------------------------|
|-----------------------------------------|
|-0-0-0-0-0--0-0-0-0-0--5--5--5--1--1--1--|
|-0-0-0-0-0--0-0-0-0-0--5--5--5--1--1--1--|
|-1-1-1-1-1--1-1-1-1-1--5--5--5--1--1--1--|
  * * * * *  * * * * *
|-----------------------------------|
|---------------------------5nh-----|
|---------------------------5nh-----|
|-0-0-0-0-0--0-0-0-0-0----(Left   )-|
|-0-0-0-0-0--0-0-0-0-0----(Speaker)-|
|-1-1-1-1-1--1-1-1-1-1----(Only   )-|
  * * * * *  * * * * *
|-----------------------|    |-------------------|    |----------|
|-----------------------|    |-------------------|    |----------|
|-----------------------|    |-------------------|    |----------|
|-0-0-0-0-0--0-0-0-0-0--|(x1)|-5--5--5--1--1--1--|(x3)|----------|(x1)
|-0-0-0-0-0--0-0-0-0-0--|    |-5--5--5--1--1--1--|    |----------|
|-1-1-1-1-1--1-1-1-1-1--|    |-5--5--5--1--1--1--|    |-17tp--13-|
  * * * * *  * * * * *
Verse
|---------------------------------------------------------|
|---------------------------------------------------------|
|---------------------------------------------------------|
|---------------------------------------------------------|
|------------------------------------------------11-------|
|-0-0-0--0--0--0-0-0--0--0--0-0-0--0--0--9-11-12----12-11-|
  * * *        * * *        * * *        *  *  *  *  *  *
|-------------------------------------------------------|
|-------------------------------------------------------|
|----------------------------------------8-8-8----------|
|----------------------------------------x-x-x----------|
|----------------------------------------6-6-6----------|
|-0-0-0--0--0--0-0-0--0--0--0-0-0--0--0--------6ph^-----|
  * * *        * * *        * * *
|---------------------------------------------------------|
|---------------------------------------------------------|
|---------------------------------------------------------|
|---------------------------------------------------------|
|------------------------------------------------11-------|
|-0-0-0--0--0--0-0-0--0--0--0-0-0--0--0--9-11-12----12-11-|
  * * *        * * *        * * *        *  *  *  *  *  *
|-----------------|
|-----------------|
|-5-------8-------|
|-x-(x12)-x-(x12)-|
|-3-------6-------|
|-----------------|

Build-up:
|---------------------------------------------------------|
|---------------------------------------------------------|
|---------------------------------------------------------|
|---------------------------------------------------------|
|------------------------------------------------11-------|
|-0-0-0--0--0--0-0-0--0--0--0-0-0--0--0--9-11-12----12-11-|
  * * *        * * *        * * *        *  *  *  *  *  *
|--------------------------------------------------|
|--------------------------------------------------|
|--------------------------------------------------|
|--------------------------------------------------|
|----------------------------------------6ph^------|
|-0-0-0--0--0--0-0-0--0--0--0-0-0--0--0-------6ph^-|
  * * *        * * *        * * *
|---------------------------------------------------------|
|---------------------------------------------------------|
|---------------------------------------------------------|
|---------------------------------------------------------|
|------------------------------------------------11-------|
|-0-0-0--0--0--0-0-0--0--0--0-0-0--0--0--9-11-12----12-11-|
  * * *        * * *        * * *        *  *  *  *  *  *
|-----------------|
|-----------------|
|-5-------8-------|
|-x-(x12)-x-(x12)-|
|-3-------6-------|
|-----------------|

AND NOW WE DROWN THE WORLD
|------------------------------------------------------------------|
|------------------------------------------------------------------|
|-7-7-7-7---7-7-7-7-7-7-7-7-7-7--7-7-7-7-7-7-7-7-7-7---7-7-7-7-7-7-|
|-x-x-x-x---x-x-x-x-x-x-x-x-x-x--x-x-x-x-x-x-x-x-x-x---x-x-x-x-x-x-|
|-5-5-5-5---5-5-5-5-5-5-5-5-5-5--5-5-5-5-5-5-5-5-5-5---5-5-5-5-5-5-|
|------------------------------------------------------------------|
|
|-------------------------------------|
|-------------------------------------|
|-10-10-10-10-10-10-13-13-13-13-13-13-|
|--x--x--x--x--x--x--x--x--x--x--x--x-|(x3)
|--8--8--8--8--8--8-11-11-11-11-11-11-|
|-------------------------------------|

|------------------------------------------------------------------|
|------------------------------------------------------------------|
|-7-7-7-7---7-7-7-7-7-7-7-7-7-7--7-7-7-7-7-7-7-7-7-7---7-7-7-7-7-7-|
|-x-x-x-x---x-x-x-x-x-x-x-x-x-x--x-x-x-x-x-x-x-x-x-x---x-x-x-x-x-x-|
|-5-5-5-5---5-5-5-5-5-5-5-5-5-5--5-5-5-5-5-5-5-5-5-5---5-5-5-5-5-5-|
|------------------------------------------------------------------|
|
|----------------------|
|----------------------|
|-10-10-10-10-10-10-13-|
|--x--x--x--x--x--x--x-|(x1)
|--8--8--8--8--8--8-11-|
|----------------------|
 END.

key:
    * = Palm mute
   ph = Pinch Harmonic
    ^ = bend
    v = release bend
    x = muted string
    / = slide
   nh = natural harmonic
   tp = tremolo picking