Of Montreal - Tim Wish You Were Born A Girl Text Guitar Tab

Learn the song with the online tablature player
Tim, wish you were born a girl - Of Montreal

E||----------------------------|------------------------8--|
B||--10--------10--11--10------|------10--------10--10-----|
G||------------------------12--|--10-----------------------|
D||----------------------------|---------------------------|
A||----------------------------|---------------------------|
E||----------------------------|---------------------------|

--8----10----10----8----|--8----5----8----3----|--1/---8----8----12--12--|
------------------------|----------------------|-------------------------|
------------------------|----------------------|-------------------------|
------------------------|----------------------|-------------------------|
------------------------|----------------------|-------------------------|
------------------------|----------------------|-------------------------|

--12--12--10/---5----3--1--|------1/---5----8----|--5----3----5----3----|
---------------------------|---------------------|----------------------|
---------------------------|---------------------|----------------------|
---------------------------|---------------------|----------------------|
---------------------------|---------------------|----------------------|
---------------------------|---------------------|----------------------|

--1----------------|----------||
-------------------|----------||
-------------------|----------||
-------------------|----------||
-------------------|----------||
-------------------|----------||