Of The Wand And The Moon - Honour Text Guitar Tab

Learn the song with the online tablature player
Band/Song: Of The Wand And The Moon - Honour
Album: Sonnenheim

Verse
     ^    ^  v    v  ^  v     ^    ^  v    v  ^  v
     Q    E  Q    E  E  E     Q    E  Q    E  E  E
E||--0-------0-------------|--0-------0-------------|
B||--0----0--0----0--0--0--|--0----0--0----0--0--0--|
G||--0----0--0----0--0--0--|--0----0--0----0--0--0--|
D||--2----2--2----2--2--2--|--0----0--0----0--0--0--|
A||--2----2--2----2--2--2--|--2----2--2----2--2--2--|
E||--0----0--0----0--0--0--|--3----3--3----3--3--3--|

  ^    ^  v    v  ^  v     ^    ^  v    v  ^  v
  Q    E  Q    E  E  E     Q    E  Q    E  E  E
--0-------0-------------|--0-------0-------------|
--1----1--1----1--1--1--|--0----0--0----0--0--0--|
--2----2--2----2--2--2--|--0----0--0----0--0--0--|
--2----2--2----2--2--2--|--0----0--0----0--0--0--|
--0----0--0----0--0--0--|--2----2--2----2--2--2--|
--0----0--0----0--0--0--|--3----3--3----3--3--3--|

Chorus

  ^    ^  v    v  ^  v     ^    ^  v    v  ^  v
  Q    E  Q    E  E  E     Q    E  Q    E  E  E
--0-------0-------------|--0-------0-------------|
--0----0--0----0--0--0--|--1----1--1----1--1--1--|
--0----0--0----0--0--0--|--2----2--2----2--2--2--|
--0----0--0----0--0--0--|--2----2--2----2--2--2--|
--2----2--2----2--2--2--|--0----0--0----0--0--0--|
--3----3--3----3--3--3--|--0----0--0----0--0--0--|

  ^    ^  v    v  ^  v     ^    ^  v    v  ^  v
  Q    E  Q    E  E  E     Q    E  Q    E  E  E
--0-------0-------------|--0-------0-------------||
--1----1--1----1--1--1--|--0----0--0----0--0--0--||
--0----0--0----0--0--0--|--0----0--0----0--0--0--||
--2----2--2----2--2--2--|--0----0--0----0--0--0--||
--3----3--3----3--3--3--|--2----2--2----2--2--2--||
--0----0--0----0--0--0--|--3----3--3----3--3--3--||

Duration Legend

Q - quarter
E - 8th

^ - brush up
v - brush down