Of The Wand And The Moon - Let It Be Ever Thus Text Guitar Tab

Learn the song with the online tablature player
Band/Song: Of The Wand And The Moon - Let It Be Ever Thus
Album: Lucifer

Verse

      ^    v  ^  v  ^     ^    v  ^  v  ^     ^    v  ^  v  ^     ^    v  ^  v  ^
      Q    E  E  E  E     Q    E  E  E  E     Q    E  E  E  E     Q    E  E  E  E
D#||-------------------|-------------------|-------------------|-------------------|
A#||--0----------------|--0----------------|--0----------------|--0----------------|
F#||--0----0--0--0--0--|--0----0--0--0--0--|--0----0--0--0--0--|--0----0--0--0--0--|
C#||--2----2--2--2--2--|--2----2--2--2--2--|--2----2--2--2--2--|--2----2--2--2--2--|
G#||--2----2--2--2--2--|--2----2--2--2--2--|--2----2--2--2--2--|--2----2--2--2--2--|
D#||--0----0--0--0--0--|--0----0--0--0--0--|--0----0--0--0--0--|--0----0--0--0--0--|

  ^    v  ^  v  ^     ^    v  ^  v  ^     ^    v  ^  v  ^     ^    v  ^  v  ^
  Q    E  E  E  E     Q    E  E  E  E     Q    E  E  E  E     Q    E  E  E  E
--0----------------|--0----------------|--0----------------|--0----------------|
--0----0--0--0--0--|--0----0--0--0--0--|--0----0--0--0--0--|--0----0--0--0--0--|
--2----2--2--2--2--|--2----2--2--2--2--|--2----2--2--2--2--|--0----0--0--0--0--|
--2----2--2--2--2--|--2----2--2--2--2--|--2----2--2--2--2--|--2----2--2--2--2--|
--0----0--0--0--0--|--0----0--0--0--0--|--0----0--0--0--0--|--3----3--3--3--3--|
-------------------|-------------------|-------------------|-------------------|

Chorus

  ^    v  ^  v  ^     ^    v  ^  v  ^     ^    v  ^  v  ^     ^    v  ^  v  ^
  Q    E  E  E  E     Q    E  E  E  E     Q    E  E  E  E     Q    E  E  E  E
-------------------|--0----------------|-------------------|-------------------||
--0----------------|--3----3--3--3--3--|--0----------------|--0----------------||
--0----0--0--0--0--|--2----2--2--2--2--|--0----0--0--0--0--|--0----0--0--0--0--||
--0----0--0--0--0--|--0----0--0--0--0--|--2----2--2--2--2--|--2----2--2--2--2--||
--2----2--2--2--2--|--0----0--0--0--0--|--2----2--2--2--2--|--2----2--2--2--2--||
--3----3--3--3--3--|-------------------|--0----0--0--0--0--|--0----0--0--0--0--||

Duration Legend

Q - quarter
E - 8th

^ - brush up
v - brush down