Of The Wand And The Moon - Megin Runar Text Guitar Tab

Learn the song with the online tablature player
Verse

      ^    ^  v  ^  v     ^    ^  v  ^  v     ^    ^  v  ^  v     ^    ^  v  ^  v
      Q    E  E  E  E     Q    E  E  E  E     Q    E  E  E  E     Q    E  E  E  E
D#||--0----------------|--0----------------|--0----------------|--0----------------|
A#||--1----1--1--1--1--|--0----0--0--0--0--|--0----0--0--0--0--|--3----3--3--3--3--|
F#||--2----2--2--2--2--|--2----2--2--2--2--|--0----0--0--0--0--|--2----2--2--2--2--|
C#||--2----2--2--2--2--|--2----2--2--2--2--|--2----2--2--2--2--|--0----0--0--0--0--|
G#||--0----0--0--0--0--|--0----0--0--0--0--|--2----2--2--2--2--|--0----0--0--0--0--|
D#||-------------------|-------------------|-------------------|-------------------|

  ^    ^  v  ^  v     ^    ^  v  ^  v     ^    ^  v  ^  v     ^  v  ^  v  ^  v
  Q    E  E  E  E     Q    E  E  E  E     Q    E  E  E  E     E  E  E  E  E  E
--0----------------|--0----------------|--0----------------|--0-----------------|
--1----1--1--1--1--|--0----0--0--0--0--|--0----0--0--0--0--|--1--1--1--1--1--1--|
--2----2--2--2--2--|--2----2--2--2--2--|--0----0--0--0--0--|--0--0--0--0--0--0--|
--2----2--2--2--2--|--2----2--2--2--2--|--2----2--2--2--2--|--2--2--2--2--2--2--|
--0----0--0--0--0--|--0----0--0--0--0--|--2----2--2--2--2--|--3--3--3--3--3--3--|
-------------------|-------------------|-------------------|--------------------|

Chorus

  ^    ^  v  ^  v     ^    ^  v  ^  v     ^    ^  v  ^  v     ^    ^  v  ^  v
  Q    E  E  E  E     Q    E  E  E  E     Q    E  E  E  E     Q    E  E  E  E
--0----------------|--0----------------|--0----------------|--0----------------|
--3----3--3--3--3--|--3----3--3--3--3--|--1----1--1--1--1--|--1----1--1--1--1--|
--2----2--2--2--2--|--2----2--2--2--2--|--0----0--0--0--0--|--0----0--0--0--0--|
--0----0--0--0--0--|--0----0--0--0--0--|--2----2--2--2--2--|--2----2--2--2--2--|
--0----0--0--0--0--|--0----0--0--0--0--|--3----3--3--3--3--|--3----3--3--3--3--|
-------------------|-------------------|-------------------|-------------------|

  ^    ^  v  ^  v     ^    ^  v  ^  v     ^  v  ^  v  ^  v     ^    ^  v  ^  v
  Q    E  E  E  E     Q    E  E  E  E     E  E  E  E  E  E     Q    E  E  E  E
--0----------------|--0----------------|--0-----------------|--0----------------||
--0----0--0--0--0--|--0----0--0--0--0--|--1--1--1--1--1--1--|--1----1--1--1--1--||
--0----0--0--0--0--|--0----0--0--0--0--|--0--0--0--0--0--0--|--0----0--0--0--0--||
--2----2--2--2--2--|--2----2--2--2--2--|--2--2--2--2--2--2--|--2----2--2--2--2--||
--2----2--2--2--2--|--2----2--2--2--2--|--3--3--3--3--3--3--|--3----3--3--3--3--||
-------------------|-------------------|--------------------|-------------------||

Duration Legend

Q - quarter
E - 8th

^ - brush up
v - brush down