Of The Wand And The Moon - Naer Skog Naer Fjoellum Text Guitar Tab

Learn the song with the online tablature player
Band/Song: Of The Wand And The Moon - Naer Skog Naer Fjoellum
Album: Lucifer

Repeat this riff throughout the whole song.

     ^    ^  v    ^  v  ^     ^    ^  v    ^  v  ^
     Q    E  Q    E  E  E     Q    E  Q    E  E  E
E||--0-------0-------------|--0-------0-------------|
B||--0----0--1----1--1--1--|--3----3--1----1--1--1--|
G||--2----2--2----2--2--2--|--2----2--2----2--2--2--|
D||--2----2--2----2--2--2--|--2----2--2----2--2--2--|
A||--0----0--0----0--0--0--|--0----0--0----0--0--0--|
E||------------------------|------------------------|

  ^    v  ^    v  ^  v     ^    ^  v    ^  v  ^
  Q    E  Q    E  E  E     Q    E  Q    E  E  E
------------------------|--0-------0-------------||
--0-------0-------------|--3----3--1----1--1--1--||
--0----0--0----0--0--0--|--2----2--0----0--0--0--||
--2----2--0----0--0--0--|--0----0--2----2--2--2--||
--2----2--2----2--2--2--|--0----0--3----3--3--3--||
--0----0--3----3--3--3--|------------------------||

Duration Legend

Q - quarter
E - 8th

^ - brush up
v - brush down