Offbeatz - Prisoner Of Spain Text Guitar Tab

Learn the song with the online tablature player
Song: Prisoner of Spain
Band: The Offbeatz

This is a cool song, I saw them on Conan O'Brien.

The Entire Song switches from regular chords to power chords
 Amx2   Cx2  D Dsus4 D Fx2
Intro
E-0-0---0-0---2-0-2----1-1
B-1-1---1-1---3-3-3----1-1
G-2-2---0-0---2-2-2----2-2
D-2-2---2-2---0-0-0----3-3
A-0-0---3-3---------------
E-------------------------

Verses

E-------------------
B-------------------
G------5-5--7-7-----
D-7-7--5-5--7-7--3-3
A-7-7--3-3--5-5--3-3
E-5-5------------1-1

Solo

Forget it!