Offspring - Gotta Get Away Text Guitar Tab

Learn song with the online tabulature player
This is my first tab. Enjoy!

Intro:
e|--------------------------------------|
B|-------8-8-7--5~----------8-8-10-5~---|
G|--7-7--7-7-7--4~-----7-7--7-7--7-4~---| x2
D|--------------------------------------|
A|--------------------------------------|
E|--------------------------------------|
PM  . .                . .


Pre-verse:
e|------------------------------------------------------------------------------|
B|------------------------------------------------------------------------------|
G|----7-7-------7-7-------9-9-------9-9-------12-12-------14---9-9-10-9-10-9-10-| x2
D|----7-7-------7-7-------9-9-------9-9-------12-12-------14---9-9--9-9--9-9-9--|
A|----5-5-------5-5-------7-7-------7-7-------10-10-------12---7-7--7-7--7-7-7--|
E|--0-------0-0-------0-0-------0-0-------0-0---------0-0-----------------------|
PM  .       . .       . .       . .       . .         . .


Verse 1:
e|------------------------------------------------------------------------------|
B|------------------------------------------------------------------------------|
G|----7-7-------7-7-------9-9-------9-9-------12-12-------14---9-9-10-9-10-9-10-| x4
D|----7-7-------7-7-------9-9-------9-9-------12-12-------14---9-9--9-9--9-9-9--|
A|----5-5-------5-5-------7-7-------7-7-------10-10-------12---7-7--7-7--7-7-7--|
E|--0-------0-0-------0-0-------0-0-------0-0---------0-0-----------------------|
PM  .       . .       . .       . .       . .         . .


Chorus:
e|----------------------------------------------------------------|
B|----------------------------------------------------------------|
G|--9--9--9--9------------------12--12--12--12--------------------| x4
D|--9--9--9--9--10--10--10--10--12--12--12--12--12--12--12--12----|
A|--7--7--7--7--10--10--10--10--10--10--10--10--12--12--12--12----|
E|---------------8---8---8---8------------------10--10--10--10----|


Pre-verse:
e|------------------------------------------------------------------------------|
B|------------------------------------------------------------------------------|
G|----7-7-------7-7-------9-9-------9-9-------12-12-------14---9-9-10-9-10-9-10-| x2
D|----7-7-------7-7-------9-9-------9-9-------12-12-------14---9-9--9-9--9-9-9--|
A|----5-5-------5-5-------7-7-------7-7-------10-10-------12---7-7--7-7--7-7-7--|
E|--0-------0-0-------0-0-------0-0-------0-0---------0-0-----------------------|
PM  .       . .       . .       . .       . .         . .


Verse 2:
e|------------------------------------------------------------------------------|
B|------------------------------------------------------------------------------|
G|----7-7-------7-7-------9-9-------9-9-------12-12-------14---9-9-10-9-10-9-10-| x4
D|----7-7-------7-7-------9-9-------9-9-------12-12-------14---9-9--9-9--9-9-9--|
A|----5-5-------5-5-------7-7-------7-7-------10-10-------12---7-7--7-7--7-7-7--|
E|--0-------0-0-------0-0-------0-0-------0-0---------0-0-----------------------|
PM  .       . .       . .       . .       . .         . .


Chorus:
e|----------------------------------------------------------------|
B|----------------------------------------------------------------|
G|--9--9--9--9------------------12--12--12--12--------------------| x6
D|--9--9--9--9--10--10--10--10--12--12--12--12--12--12--12--12----|
A|--7--7--7--7--10--10--10--10--10--10--10--10--12--12--12--12----|
E|---------------8---8---8---8------------------10--10--10--10----|


Riff:
e|--------------------------------------|
B|-------8-8-7--5~----------8-8-10-5~---|
G|--7-7--7-7-7--4~-----7-7--7-7--7-4~---|   x2
D|--------------------------------------|
A|--------------------------------------|
E|--------------------------------------|
PM  . .                . .


Bridge:
e|------------------------------------------------------------------------------|
B|------------------------------------------------------------------------------|
G|----7-7-------7-7-------9-9-------9-9-------12-12-------14---9-9-10-9-10-9-10-| x2
D|----7-7-------7-7-------9-9-------9-9-------12-12-------14---9-9--9-9--9-9-9--|
A|----5-5-------5-5-------7-7-------7-7-------10-10-------12---7-7--7-7--7-7-7--|
E|--0-------0-0-------0-0-------0-0-------0-0---------0-0-----------------------|
PM  .       . .       . .       . .       . .         . .


Chorus:
e|----------------------------------------------------------------|
B|----------------------------------------------------------------|
G|--9--9--9--9------------------12--12--12--12--------------------| x8
D|--9--9--9--9--10--10--10--10--12--12--12--12--12--12--12--12----|
A|--7--7--7--7--10--10--10--10--10--10--10--10--12--12--12--12----|
E|---------------8---8---8---8------------------10--10--10--10----|


Outro:
e|-------------------|
B|-------------------|
G|-------------------|
D|--2~---------------|
A|--2~---------------|
E|--0~---------------|

Tabbed by Morgan Rhea
morgan.minority@hotmail.com