Offspring - I Got A Right Text Guitar Tab

Learn the song with the online tablature player
Intro     Intro Solo
E----------|    E-------------------------------|
B----------|    B-------------------------------|
G----------|    G-------------------------------|
D--9*--5*--|    D--9-9-9--5---5---9-9-9--5---5--|
A--9*--5*--|    A-----------5--------------5----|
E--7*--3*--|    E-------------------------------|

Verse
x2)
E----------------------------------------------------------|
B----------------------------------------------------------|
G--9-9-9--5---5---9-9-9--5---5---9-9-9--5---5---7---7------|
D--9-9-9--5-5-5---9-9-9--5-5-5---9-9-9--5-5-5---7-7-7-7-7--|
A--7-7-7--3-5-3---7-7-7--3-5-3---7-7-7--3-5-3---5-7-5-7-7--|
E-----------3--------------3--------------3-------5---5-5--|

Chorus
E-----------------------------------------------------|
B-----------------------------------------------------|
G---9---9------7---7------5-5-5---------7-7-7---------|
D---9-9-9-9-9--7-7-7-7-7--5-5-5--5-5-5--7-7-7--7-7-7--|
A---7-9-7-9-9--5-7-5-7-7--3-3-3--5-5-5--5-5-5--7-7-7--|
E-----7---7-7----5---5-5---------3-3-3---------5-5-5--|

E------------------------------------------|
B------------------------------------------|
G---9---9------7---7------5-5-5------------|
D---9-9-9-9-9--7-7-7-7-7--5-5-5--5-5-5--9--|
A---7-9-7-9-9--5-7-5-7-7--3-3-3--5-5-5--9--|
E-----7---7-7----5---5-5---------3-3-3--7--|

Bridge
Palm Mute = X)
E----------------------------------------------|
B----------------------------------------------|
G--9*--5---5--7---7------9*--5---5--9*--5---5--|
D--9*--5-5-5--7-7-7-7-7--9*--5-5-5--9*--5-5-5--|
A--7*--3-5-3--5-7-5-7-7--7*--3-5-3--7*--3-5-3--|
E--------3------5---5-5--------3----------3----|
   X-------X             X------------------X