Offspring - Ixnay Intermission Text Guitar Tab

Learn the song with the online tablature player
---------------|-----|---------------|-----------|--------------|-------------
---------------|--5--|--6----6-4---4-|-----------|-4----4-------|-------------
--5-5-5-2-4----|-----|---------------|--6----6-5-|--------6----6|-------------
--------------5|-----|---------------|-----------|--------------|-------------
---------------|-----|---------------|-----------|--------------|-------------
---------------|-----|---------------|-----------|--------------|-------------

-----------|-------------|-------------|--------------------------------------
-----------|-------------|-------------|--------------------------------------
--5-----5-3|-------------|------------5|--------------------------------------
-----------|-6---3-5----3|-6-6-6-3-5---|-6------------------------------------
-----------|-------------|-------------|--------------------------------------
-----------|-------------|-------------|--------------------------------------
                                            then are you ready for ALL I WANT??
                                                Yeahyeahyeah!!!