Offspring - Origional Prankster Text Guitar Tab

Learn the song with the online tablature player
e|-------------------------------------------------------------------------|
B|-------------------------------------------------------------------------|
G|-------------------------------------------------------------------------|
D|------------------------------7------------------------------------------|
A|------------------------------------------------------5------------------|
E|-----5-5-8-5-5------5-5-8-5-5---5-8-5-5-----5-5-8-5-5--------------------|

e|-------------------------------------------------------------------------|
B|-------------------------------------------------------------------------|
G|-------------------------------------------------------------------------|
D|---------------7---------------------------------------------------------|
A|---------------------5---5-----5-----------------------------------------|
E|-----5-5-8-5-5---5-5---5---5-8---8---------------------------------------|
                                                             (3 times)
e|-------------------------------------------------------------------------|
B|-------------------------------------------------------------------------|
G|-------------------------------------------------------------------------|
D|-------------7-----------------------------------------------------------|
A|-----------------6-5---5-----5-------------------------------------------|
E|-----5-5-8-5---5-----5---5-8---8-----------------------------------------|

e|-------------------------------------------------------------------------|
B|-------------------------------------------------------------------------|
G|-------------------------------------------------------------------------|
D|-------------7-----------------------------------------------------------|
A|-----------------6-5---5-------------------------------------------------|
E|-----5-5-8-5---5-----5---------------------------------------------------|

| /  slide up
| \  slide down
| h  hammer-on
| p  pull-off
| ~  vibrato
| +  harmonic
| x  Mute note