Offspring - Probe Text Guitar Tab

Learn the song with the online tablature player
Mia

E||------||-----------------------------------|
B||------||-----------------------------------|
G||------||*----------------------------------|
D||------||*----------------------------------|
A||------||-----------------------------------|
E||------||---5-5-5-5-5-5-5-5-7-7-7-7-7-7-7-7-|

-----------------------------------||--5-5-5-5-5-5-5-5-7-7-7-7-7-7-7-7-|
-----------------------------------||----------------------------------|
----------------------------------*||----------------------------------|
----------------------------------*||----------------------------------|
-----------------------------------||----------------------------------|
--3-3-3-3-3-3-3-3-1-1-1-1-1-1-1-1--||----------------------------------|

--3-3-3-3-3-3-3-3-1-1-1-1-1-1-1-1-|--5-5-5-5-5-5-5-5-7-7-7-7-7-7-7-7-|
----------------------------------|----------------------------------|
----------------------------------|----------------------------------|
----------------------------------|----------------------------------|
----------------------------------|----------------------------------|
----------------------------------|----------------------------------|

--3-3-3-3-3-3-3-3-1-1-1-1-1-1-1-1-|--5-5-5-5-5-5-5-5-7-7-7-7-7-7-7-7-|
----------------------------------|----------------------------------|
----------------------------------|----------------------------------|
----------------------------------|----------------------------------|
----------------------------------|----------------------------------|
----------------------------------|----------------------------------|

--3-3-3-3-3-3-3-3-1-1-1-1-1-1-1-1-|--5-5-5-5-5-5-5-5-7-7-7-7-7-7-7-7-|
----------------------------------|----------------------------------|
----------------------------------|----------------------------------|
----------------------------------|----------------------------------|
----------------------------------|----------------------------------|
----------------------------------|----------------------------------|

--3-3-3-3-3-3-3-3-1-1-1-1-1-1-1-1-||-----------------------------------|
----------------------------------||-----------------------------------|
----------------------------------||*----------------------------------|
----------------------------------||*----------------------------------|
----------------------------------||-----------------------------------|
----------------------------------||---5-5-5-5-5-5-5-5-7-7-7-7-7-7-7-7-|

-----------------------------------||-----------------------|
-----------------------------------||-----------------------|
----------------------------------*||*----------------------|
----------------------------------*||*----------------------|
-----------------------------------||--------7---------9----|
--3-3-3-3-3-3-3-3-1-1-1-1-1-1-1-1--||---5---------7---------|

-----------------------||---|---|---|---||----|---|---|----||---|---|---|---|
-----------------------||---|---|---|---||----|---|---|----||---|---|---|---|
----------------------*||---|---|---|---||*---|---|---|---*||---|---|---|---|
----------------------*||---|---|---|---||*---|---|---|---*||---|---|---|---|
-------5---------3-----||---|---|---|---||----|---|---|----||---|---|---|---|
--3---------1----------||---|---|---|---||----|---|---|----||---|---|---|---|

---|---|---|---|---|--4------3------5----|---|--5------3------4----|------|
---|---|---|---|---|--4------3------5----|---|--5------3------4----|------|
---|---|---|---|---|--5------4------6----|---|--6------4------5----|------|
---|---|---|---|---|--6------5------7----|---|--7------5------6----|------|
---|---|---|---|---|--6------5------7----|---|--7------5------6----|------|
---|---|---|---|---|--4------3------5----|---|--5------3------4----|------|

--4------3------5----|---|--5------3------4----|------|
--4------3------5----|---|--5------3------4----|------|
--5------4------6----|---|--6------4------5----|------|
--6------5------7----|---|--7------5------6----|------|
--6------5------7----|---|--7------5------6----|------|
--4------3------5----|---|--5------3------4----|------|

--5-5-5-5-5-5-5-5-7-7-7-7-7-7-7-7-|--3-3-3-3-3-3-3-3-1-1-1-1-----|----|----|
----------------------------------|------------------------------|----|----|
----------------------------------|------------------------------|----|----|
----------------------------------|------------------------------|----|----|
----------------------------------|------------------------------|----|----|
----------------------------------|------------------------------|----|----|

----||
----||
----||
----||
----||
----||