Oh Mercy - Lay Everything On Me Text Guitar Tab

Learn the song with the online tablature player
INTRO
|---7--7----7---7-----7-----7--7----7----7---5--|
|---10-10---10--7-----7-----7--5----5----5---5--|
|---7--7----7---7-----7-----7--5----5----5---5--| x2
|-----------------------------------------------|
|-----------------------------------------------|
|-----------------------------------------------|

JOINING INTRO & VERSE:
|---7--6--5---|
|---7--6--5---|
|---7--6--5---|
|-------------|
|-------------|
|-------------|

SOLO

|---5--7-7--5-5--3-3--5--7-7--6--5--3--5--|
|---5--5-5--5-5--5-5--5--5-5--5--5--5--5--|
|---5--5-5--5-5--5-5--5--5-5--5--5--5--5--|
|-----------------------------------------|
|-----------------------------------------|
|-----------------------------------------|

It's a working progress and isn't finished yet, feel free to send suggestions or comments :)

Oh mercy are a signed band, but don't have an official website