Oh Mercy - Let Me Go Text Guitar Tab

Learn the song with the online tablature player
Intro

Piano:

e -------------10---------------|
B ----12-10-12------12-10-12----|
G ------------------------------| x2
D ------------------------------|
A ------------------------------|
E ------------------------------|

Guitar 1

e ----7-7-5-5-7-7-10-10-----7-7-5-5-7--------------------|
B ----8-8-7-7-8-8-12-12-----8-8-7-7-8--------------------|
G -------------------------------------------------------| x2
D -------------------------------------------------------|
A -------------------------------------------------------|
E -------------------------------------------------------|

Guitar 2

e ----3-x-3-x----|
B ----3-x-3-x----|
G ----4-x-4-x----| x4
D ----5-x-5-x----|
A ----5-x-5-x----|
E ----3-x-3-x----|

Bass

G ----------|
D ----------| x 4
A ----------|
E --2-2-----|