Ohm - Peanut Buddha Text Guitar Tab

Learn song with the online tabulature player
-------------------------------------------------------------------------------
                             Peanut Buddha - Ohm:
-------------------------------------------------------------------------------

Tabbed by: Mongo
Email: zone-locked@hotmail.co.uk

Tuning: Standard

this is all i know so far, the chords at the start are probably off,
the rest is probably accurate but might be played in different places.
please correct or build on this if you can.

A|---------------------------------|
E|--11~-9~-------------------------|

e|-------6--------12---------------|
B|--10---7---10---12---8-----------|
G|--10---6---10--------7-----------|
D|--10---8---10--------9-----------|
A|--8----9---8---------7---9-------|
E|---------------------0---7-------| x2

e|---------------------------------------------------------|
B|---------------------------------------------------------|
G|------------------------------11-15-14~---13-13-11-15-13-|
D|----------------8----11-13-15----------------------------|
A|----8---6~-11-9---11-------------------------------------|
E|--9---9--------------------------------------------------|


e|---------------------------------------------------------|
B|---------------------------------------------------------|
G|------------------------------11-15-16~---11-15-11-15-15~|
D|----------------8----11-13-15----------------------------|
A|----8---6~-11-9---11-------------------------------------|
E|--9---9--------------------------------------------------|

e|--------------------------------------------------------------------|
B|------------------------------------------11-------11---------------|
G|------------------------------11-15-13b15----13b15----13-13-11-15-13|
D|----------------8----11-13-15---------------------------------------|
A|----8---6~-11-9---11------------------------------------------------|
E|--9---9-------------------------------------------------------------|

e|---------------------------------------------------------|
B|---------------------------------------------------------|
G|------------------------------11-15-16~---11-15-11-15-14~|
D|----------------8----11-13-15----------------------------|
A|----8---6~-11-9---11-------------------------------------|
E|--9---9--------------------------------------------------|