Ohrbooten - Taub Text Guitar Tab

Learn the song with the online tablature player
                             Taub - Ohrbooten

               G                  A#        C         G
e|----------------------------------------------------------------------|
B|----------------------------------------------------------------------|
G|-------------0--------0---------0---------0---------0-----------------|
D|-------------5--------5---------8--------10---------5-----------------|
A|-------------5--------5---------8--------10---------5-----------------|
E|----------3-----3--3-----3---6-----6--8------3---3--------------------|

Refrain

e|---------3----------3---------3---------3----------------------------|
B|----3-----3----------3---------3---------3---------------------------|
G|---------------6----------5---------3--------------------------------|
D|------5----------5----------5---------5------------------------------|
A|---------------------------------------------------------------------|
E|---------------------------------------------------------------------|

e|---------3----------3---------3---------3----------------------------|
B|----3-----3----------3---------3---------3---------------------------|
G|---------------6----------5---------5--------------------------------|
D|------5----------5----------5---------5------------------------------|
A|---------------------------------------------------------------------|
E|---------------------------------------------------------------------|