Oil - Drying Up Text Guitar Tab

Learn the song with the online tablature player
intro
---------------------|
---------------------|
---------------------|
----2-----12-11-9-7~-|
----2-----10--9-7-5~-|
-0--0--0-------------|

Chrous

------------------------------------------------------|
------------------------------------------------------|
------------------------------------------------------|
-------------------5-5-5-5--2-2-2-2--7-7-7-7----------|
-5-5-5-5--2-2-2-2--3-3-3-3--0-0-0-0--5-5-5-5--9-9-9-9-|
-3-3-3-3--0-0-0-0-----------------------------7-7-7-7-|