Ok Go - Here Comes The Fire Chicago Fire Text Guitar Tab

Learn the song with the online tablature player
Main Riff:

   Guitar 1:
e|--------------------------------------------|
B|--------------------------------------------|
G|--------------------------------------------|
D|--9--9/11-14---16--9/11-9---9-9/11-14--9----|
A|--9--9/11-14---16--9/11-9---9-9/11-14--9----|
E|--7--7/9--12---14--7/9--7---7-7/9--12--7----|

   Guitar 2:
e|--------------------------------------------|
B|--------------------------------------------|
G|--------------------------------------------|
D|--9--9/11-14---16--9/11-9---9-9/11-14--9----|
A|--------------------------------------------|
E|--------------------------------------------|