Ok Go - Theres A Fire Text Guitar Tab

Learn song with the online tabulature player
e----------------------------------------------------------------------|
B----------------------------------------------------------------------|
G--1--1--1-------------------------------------------------------------|
D--2--2--2--4--4--5--6--6--6--8--11--8--9--9--9--9--9--10--11--11--11--|
A--2--2--2--2--2--3--4--4--4--6--9---6--7--7--7--9--9--10--11--11--11--|
E-----------2--2--3--4--4--4--6--9---6--7--7--7--7--7---8---9---9---9--|

e---------------|
B---------------|
G-----------1---|
D--9--6--4--2---|
A--9--6--4--2---|
E--7--4--2------|

Just repeat this over and over!