Okkervil River - Maine Island Lovers Text Guitar Tab

Learn the song with the online tablature player
El Cuplé
           D                    A
     e|----------2---5--||----------0---5--|
     B|---3--------3----||---2--------2----|
     G|---2-------------||---2-------------|
     D|-----------------||-----------------|
     A|-----------------||-----------------|
     E|-----------------||-----------------|
          ¿?                     G
     e|----------3---7--||----------3---8—7--3-|
     B|---5--------5----||---3--------3--------|
     G|---4-------------||---0-----------------|
     D|-----------------||---------------------|
     A|-----------------||---------------------|
     E|-----------------||---------------------|

El Coro
        Bm
When you walked
           A
out on her love
          Em        G
was it easy?
           Bm
When I left
               A
him while sleeping
        Em              G
was I dreaming?

     e|----------0---7--||----------3---8-7-3|
     B|---0--------0----||---3--------3------|
     G|---0-------------||---0---------------|
     D|-----------------||-------------------|
     A|-----------------||-------------------|
     E|-----------------||-------------------|

Enjuagar y Repetir