Old 97s - Soleme Text Guitar Tab

Learn the song with the online tablature player
                                SOLEME - Old 97s

Intro
e|---------1-------------1-------------0-------------0------------------->
B|---1-------1-----1-------1-----1-------1-----1-------1-----------3----->
G|-----2-------2-----2-------2-----0-------0-----0-------0---3-------3--->
D|-3-------------3---------------------------------------------0-------0->
A|-------3-------------3-------3-------------3-------------------0------->
E|-----------------------------------3-------------3-------3------------->

e|-------------------------------------0-----|
B|-----------------------3-------1-------1---|
G|---3-----3---3---3-------3-------0-------0-|
D|-----0-------------3-------3---------------|
A|-----------0---1-----1-------3-----3-------|
E|-3-----3-----------------------------------|

Verse
chords)
e|-1---0----------0-|
B|-1---1---3---3--1-|
G|-2---0---3---3--0-|
D|-3---2---0---3--2-|
A|-3---3---0---1--3-|
E|-1---3---3--------|

Prechorus
chords)
e|-----1-|
B|-3---1-|
G|-3---2-|
D|-3---3-|
A|-1---3-|
E|-----1-|

Chorus
chords)
e|---------1-|
B|-3---3---1-|
G|-3---3---2-|
D|-0---3---3-|
A|-0---1---3-|
E|-3-------1-|

Chorus lead
e|---------3-|
B|---------3-|
G|---------3-|
D|---------3-|
A|-----------|
E|-3-2-1-0---|

Solo
e|------------------------------------------------------------->
B|------------------------------------------------------------->
G|---------------5-----------3-5-----555-3-2-00-2-5-3-2-0-0---->
D|-5-33--333-5-7---55--555-7-----55-------------------------33->
A|------------------------------------------------------------->
E|------------------------------------------------------------->

e|----------------------------------------------------------|
B|----------------------------------------------------------|
G|---------------5-----------3-5-----555-3-2-0-0-2-320--3-5-|
D|-5-33--333-5-7---55--555-7-----55-------------------3-----|
A|----------------------------------------------------------|
E|----------------------------------------------------------|

Outro
e|------------------------------|
B|------------------------------|
G|-0-3-2-0-0-2-3--0-3-2-0-0-2---|
D|----------------------------3-|
A|------------------------------|
E|------------------------------|

LYRICS AND RIFF PLACEMENT

INTRO

VERSE
X2
Soleme, I cross your heart
I know what goes on inside
It's over 'fore it starts
Well I'll stay all night
I'll wait right here
Full moon light worked magic
And I won't disappear

PRECHORUS
X2
And I'm tired of making friends
And I'm tired of making time
And I'm sick to death of love
And I'm sick to death of trying
[CHORUS W/ LEAD] X3
And it's easier for you
Yeah it's easier for you

VERSE
X2
Soleme, untie my hands
Well I'll find another lady
And you'll wreck another man
It's over now and so are we
My blood's turned to dirt
Girl, you broke every part of me

PRECHORUS
X2
And I'm tired of making friends
And I'm tired of making time
And I'm sick to death of love
And I'm sick to death of trying
[CHORUS W/ LEAD] X2
And it's easier for you
Yeah it's easier for you

VERSE
X2 W/ [SOLO]

PRECHORUS
X2
And I'm tired of making friends
And I'm tired of making time
And I'm sick to death of love
And I'm sick to death of trying
[CHORUS W/ LEAD] X3
And it's easier for you
Yeah it's easier for you
[CHORUS W/ OUTRO]

| /  slide up
| \  slide down
| h  hammer-on
| p  pull-off
| ~  vibrato
| +  harmonic
| x  Mute note