Old Man Luedecke - Quiet Creek Text Guitar Tab

Learn the song with the online tablature player
Quiet Creek
Old Man Luedecke
Hinterland

Intro
D--17/10---17/10-----9/10-12-10--9/10h12h10-10----|
C------0-------0--------------0--------------0----|
G------0-------0--------------0--------------0----|
C------0-------0--------------0--------------0----|
g------0-------0--------------0--------------0----|

Verse/rest of song chords
D--0h2---2p0---------------------3---5-3---------------|
C----0-------0-------0---2p0-----0-------4p0---0-----0-|
G----0-----------0h2-----------0h2---------------0h2---|
C----0---------------------------0---------------------|
g----0---------------------------0---------------------|

D --3---5-3---------------------0---------------------------------------|
C --0-------4p0---0-----0-------2---------------------------------------|
G 0h2---------------0h2---------0---------------------------------------|
C --0-------------------------0h2---------------------------------------|
g --0---------------------------0---------------------------------------|