Old Man River - Time Text Guitar Tab

Learn the song with the online tablature player
Time - by Old Man River

This son is really easy, but really fun to play

Main Riff (Intro, Verse, Outro)

"Time......will...reach out......"
    Am      C      Am    Em  G/Em

e|--0-x-x---0-x-x--0-x-x--0--0-----|
B|--1-x-x---1-x-x--1-x-x--0--0-----|
G|--2-x-x---0-x-x--2-x-x--0--0-----|
D|--2-x-x---2-x-x--2-x-x--2--2-----|
A|--0-x-x---3-x-x--0-x-x--2--2-----|
E|--x-x-x---x-x-x--x-x-x--0--3-----|

"Through....my-y.....soul"
    Am      C         Am    Em  G/Em

e|--0-x-x----------x--0-x-x--0--0-----|
B|--1-x-x----------x--1-x-x--0--0-----|
G|--2-x-x----------x--2-x-x--0--0-----|
D|--2-x-x----------x--2-x-x--2--2-----|
A|--0-x-x---3h4h5p3x--0-x-x--2--2-----|
E|--x-x-x----------x--x-x-x--0--3-----|

In between verses play D for a couple bars
(the second guitar plays some dreamy kind of melody in here, just try mucking round with
Am pentatonic and blues scale)

Thats all
enjoy