Old Man River - Wedding Song Text Guitar Tab

Learn the song with the online tablature player
Old Man River - Wedding Song

Another superb tune...

Intro
--------------------------------------------------------------------|
-----2---2---2---2---2---2---2---2---0---0---0---0---3---3---3---3--|
---2---2---2---2---2---2---2---2---1---1---1---1---2---2---2---2----|
----2---2---2---2---4---4---4---4---2---2---2---2-0-0---0-0-0---0---|
--0---0---0---0-------4-------4-------2-------2-------0-------0-----|
------------------2-------2-------0-------0-------------------------|

Verse
---------------------------------------------------------------------|
-----2---2---2---2---2---2---2---2---0---0---0---0----3---3---3---3--|
---2---2---2---2---2---2---2---2---1---1---1---1----2---2---2---2----|
----2---2---2---2---4---4---4---4---2---2---2---2--0-0---0-0-0---0---|
--0---0---0-----------4-------4-------2-------2--------0-------0-----|
--------------4---2-------2-------0-------0--------------------------|

Chorus
--------------------------------------------------------------------|
-----2---2---2---2---3---3---3---3---0---0---0---0---3---3---3---3--|
---2---2---2---2---2---2---2---2---1---1---1---1---2---2---2---2----|
----2---2---2---2-0-0---0-0-0---0---2---2---2---2-0-0---0-0-0---0---|
--0---0---0---0-------0-------0-------2-------2-------0-------0-----|
----------------------------------0-------0-------------------------|