Old Man Shattered - Perfect World Text Guitar Tab

Learn song with the online tabulature player
www.oldmanshattered.com

Intro 
e|--------------------------------------------------| 
B|--------------------------------------------------| 
G|--------------------------------------------------| 
D|--------------------------------------------------| 
A|--------------------------------------------------| 
D|10h12-0-0-0-0-10h12-0-0-0-0-12--------------------| 

Verse 
|---------------------------------------------------|\ 
|---------------------------------------------------| | 
|---------------------------------------------------| | 
|---------------------------------------------------| | 
|---------------------------------------------------| | 
|10h12-0-0-0-0-10h12-0-0-0-0-10h12-0-0-0-0----------| | 
| 
|---------------------------------------------------| | 
|---------------------------------------------------| | 
|---------------------------------------------------| | 
|---------------------------------------------------| | 
|---------------------------------------------------| |\ 
|10h12-0-0-0-0-10h12-0-0-0-0-12---------------------| | | 
|                                                       |>Repeat a few times 
|---------------------------------------------------| | | 
|---------------------------------------------------| |/ 
|---------------------------------------------------| | 
|---------------------------------------------------| | 
|---------------------------------------------------| | 
|7h8-8-8-8-8-7h8-8-8-8-8-7h8-8-8-8-8-7h8-8-8-8-8----| | 
| 
|---------------------------------------------------| | 
|---------------------------------------------------| | 
|---------------------------------------------------| | 
|---------------------------------------------------| | 
|---------------------------------------------------| | 
|7h8-8-8-8-8-8--------------------------------------|/ 

Chorus Riff 
|--------------------------------------------------| 
|--------------------------------------------------| 
|--------------------------------------------------| 
|-------------17----17----17-----------------------| 
|12---10---15----15----15----15--------------------| 
|12---10---15----15----15----15--------------------| 

Bridge 

|--------------------------------------------------| 
|--------------------------------------------------| 
|--------------------------------------------------| 
|--------------------------------------------------| 
|--------------------------------------------------| 
|0-14-15-0-17-15-0-14-15-0-12-14-0-10-12-----------| 

|--------------------------------------------------| 
|--------------------------------------------------| 
|--------------------------------------------------| 
|----------------------------------12-12-----------| 
|----------------------------------x--x------------| 
|0-14-15-0-17-15-0-14-15-0-12-14-0-10-10-----------| 

Ending is Bridge in Double Time