Oleander - Back Home Years Ago Text Guitar Tab

Learn the song with the online tablature player
This is my 8th and final tab off Unwind, it's been some great times!!
Back Home Years Ago is one of the easier ones, too, so have fun!!

Intro
I'm not too sure on the exact number of strums...
eb --------------------------------------------
Bb --------------------------------------------
Gb ------6-6-------6-6-------6-6-----11/12/11--
Db -0-0--x-x--0-0--x-x--0-0--x-x--0--x--x--x---
Ab -0-0--4-4--0-0--4-4--0-0--4-4--0--9/-10/9---
Db -0-0-------0-0-------0-0-------0------------

Fill during 1st verse: first part gets played twice.
eb ---------------------------|-------------------------------
Bb ---------------------------|-------------------------------
Gb -7-7--6-6--4-4--2--4/6/2~--|-12-12--11-11-9-9--7--9/11/7~--
Db -x-x--x-x--x-x--x--x-x-x---|-x--x---x--x--x-x--x--x-x--x---
Ab -5-5--4-4--2-2--0--2/4/0~--|-10-10--9--9--7-7--5--7/9/-5~--
Db ---------------------------|-------------------------------

Chorus
"And I remember..."
eb ---------------------------------------------------------------------
Bb ---------------------------------------------------------------------
Gb ---------------------------------------------------------------------
Db -7-7-7-7-7-7-7-7--6-6-6-6-6-6-6-6--5-5-5-5-5-5-5-5--4-4-4-4-4-4-4-4--
Ab -7-7-7-7-7-7-7-7--6-6-6-6-6-6-6-6--5-5-5-5-5-5-5-5--4-4-4-4-4-4-4-4--
Db -7-7-7-7-7-7-7-7--6-6-6-6-6-6-6-6--5-5-5-5-5-5-5-5--4-4-4-4-4-4-4-4--

Bridge
(on and on like this)
eb ------------------------------8----------------8------|-------------------
Bb --------------------------------8----------------8----|-------------------
Gb -5-5-5-5-5-5-5-5--------10--------10-----10--------10-|-5-5-5-5--4-4-4-4--
Db -5-5-5-5-5-5-5-5-----10----10---------10----10--------|-5-5-5-5--4-4-4-4--
Ab -3-3-3-3-3-3-3-3--------------------------------------|-3-3-3-3--2-2-2-2--
Db ------------------------------------------------------|-------------------

Solo
eb -9~--10--12--9-10-9------------------------------------14-12------
Bb ---------^^----------12-10--12h14p12h14p12h14p12---10---------15--
Gb ------------------------------------------------------------------
Db ------------------------------------------------------------------
Ab ------------------------------------------------------------------
Db ------------------------------------------------------------------

eb ----------------------------------------------------14--12--------14-12--
Bb -15--14-14h15p14--10-12------14-15-14-----14-15-14--^^-----15-14--^^-----
Gb --------------------------14-----------14--------------------------------
Db -------------------------------------------------------------------------
Ab -------------------------------------------------------------------------
Db -------------------------------------------------------------------------

Chords: C#5  F5  F#5  G5  G#5  A#5  B5
eb       x   x    x   x    x    x   x
Bb       x   x    x   x    x    x   x
Gb       x   x    x   x    x    4   5
Db       0   4    5   6    7    4   5
Ab       0   4    5   6    7    2   3
Db       0   4    5   6    7    x   x