Olympia - Insomniac Text Guitar Tab

Learn song with the online tabulature player
Ok, this song isn't that hard, it's intermediate, what the guitarist does here is he 
distortion on and off.

Intro (distortion on)

-------------------------------------------------|
-------------------------------------------------|
-------------------------------------------------|
-x-x-x-xx---3/14/17------------------------------|
-x-x-x-xx---3/14/17------------------------------|
-x-x-x-xx---1/12/15------------------------------|


Main Riff (distortion on and off depending when he's playing it)

-------------------------------------------------|
-------------------------------------------------|
-------------------------------------------------|
-------9--11--9--7-7-5-3-----9--11--9--7-7-9-7---|
----7---------------------7----------------------|
-------------------------------------------------|

Outro (without distortion)

-------------------------------------------------|
-------------------------------------------------|
-------------------------------------------------|
------9--7-9-------------------------------------|
---7----------9----------------------------------|
-------------------------------------------------|
From here he turns the distortion on then goes onto 120 Hours


That's it, kinda confusing, you have to hear it to get it better