Omar Rodriguez-Lopez - Locomocion Capilar Text Guitar Tab

Learn the song with the online tablature player
Order:
Main riff x3
Lead line first way x1
Bridge x1
Main riff x4
Lead line second way x1
Bridge x1
Main riff x4
Lead line second way x1
Main riff x4
Lead line second way x1
Outro x1

Main riff
e-------------------------------------------------------------|
B-------------------------------------------------------------|
G-------------------------------------------------------------|
D-----------7------------7----------------7------------7------|
A---5---5-7------5---5-7----------5---5-7------5---5-7--------|
E-7---7--------7---7--------7p5h7---7--------7---7------------|

Lead line first way w/ wah
e-10-9-12-7-9~--------9---12-7----------7-9-----------------------|
B-------------------10---9---------7~--------9-10-12-9-7-9-10~----|
G-----------------9-----------------------------------------------|
D-----------------------------------------------------------------|
A-----------------------------------------------------------------|
E-----------------------------------------------------------------|

e------7-----------12~-10~-9~----7-----------7~------|
B-9-10---9-10-7----------------------9-10-7-9--------|
G---------------------------------9------------------|
D----------------------------------------------------|
A----------------------------------------------------|

Lead line second way
e-10-9-12-7-9~--------9---12------------7-9-----------------------|
B-------------------10---9---------7~--------9-10-12-9-7-9-10~----|
G------------------------------9----------------------------------|
D-----------------------------------------------------------------|
A-----------------------------------------------------------------|
E-----------------------------------------------------------------|

e------7-----------12~-10~-9~----7-----------7~------|
B-9-10---9-10-7----------------------9-10-7-9--------|
G---------------------------------9------------------|
D----------------------------------------------------|
A----------------------------------------------------|
E----------------------------------------------------|

Bridge
e---------------------|
B---------------------|
G---------------------|
D-9---9---9-7-9---9---|
A-9---9---9-7-9---9---|
E-7---7---7-5-7---7---|

Outro
e--------------------------------------12/--|
B-------------------------------------------|
G-7---7---7-5-7---7---7---7---7-5-7---9/----|
D-7---7---7-5-7---7---7---7---7-5-7---------|
A-5---5---5-3-5---5---5---5---5-3-5---7/----|
E-------------------------------------------|