Omd - Maid Of Orleans Text Guitar Tab

Learn the song with the online tablature player
                             Maid of Orleans - O.M.D.

intro
D#

[melody*]
D# A# G# D#
D# A# G# D#

D#             A#
If Joan of Arc had a heart
G#                     D#
Would she give it as a gift
D#            A#
To such as me who longs to see
G#                    D#
how an angel ought to be

[melody* (3 steps down, cause it's played on C)]
C G F C
C G F C

C                  G
Her dreams to give her heart away
F                        C
Like an orphan along the way
C                 G
She cared so much she offered up
F               C
Her body to the grave

[melody* 2x]
D# A# G# D#
D# A# G# D#

outro
D#

[*the melody}

  D#         A#         G#        D#
e|---6------|----------|---------|-------------|
B|8----8----|6--8------|---------|-----------6-|
G|----------|----------|8--------|5--8---------|
D|----------|-----8----|----6----|-----8-------|
A|----------|----------|---------|-------------|
E|----------|----------|---------|-------------|

  D#         A#         G#        D#
e|---6------|----------|---------|-------------|
B|8----8----|6--8------|---------|9-8----------|
G|----------|----------|8--------|----8--------|
D|----------|-----8----|----6----|-------------|
A|----------|----------|---------|-------------|
E|----------|----------|---------|-------------|

when the melody is played the last time, play a 9 instead of 6 in the 6th measure!