Omnisoul - Wating Save Your Life Text Guitar Tab

Learn the song with the online tablature player
Waiting (Save Your Life)

Intro/Verse
Guitar 1:
e|------------------|
B|------------------|
G|------------------|
D|--11--7---9---11--|
A|--11--7---9---11--|
E|--9---5---7---9---|

Intro
Guitar 2:
e|-----------------------|
B|-12-9-12-9-12-9---(12)-|
G|----------------9------|
D|-----------------------|
A|-----------------------|
E|-----------------------|

Pre-Chorus
e|------------------|
B|------------------|
G|------------------| (x2)
D|--7---9---11---7--|
A|--7---9---11---7--|
E|--5---7---9----5--|

Chorus
Guitar 1:
e|------------------|
B|------------------|
G|--7---------------|
D|--7---7---11---7--|
A|--9---7---11---7--|
E|------9---9----5--|

Chorus
Guitar 2:
e|------------------|
B|---10-12----------|
G|-9----------------|
D|------------------|
A|------------------|
E|------------------|

Bridge
e|--------------|
B|--------------|
G|--------------|
D|--9---11---7--|
A|--9---11---7--|
E|--7---9----5--|