One Bullet Left - Denial Of Life Text Guitar Tab

Learn the song with the online tablature player
 |---------------------------------------------------|
 |---------------------------------------------------|
 |---------------------------------------------------|X4
 |------------------------3-------------------------2|
 |------------------------3-------------------------2|
 |0-0-0-0-0-0-0-0-0-0-0-0-3-0-0-0-0-0-0-0-0-0-0-0-0-2|
  . . . . . . . . . . . .   . . . . . . . . . . . .
  + + + + + + + + + + + +   + + + + + + + + + + + +

 |---------------------------------------------------------------|
 |---------------------------------------------------------------|
 |---------------------------------------------------------------|
 |------------2-------------2-------------2-4-4-4-4--4-3-3-3-3--3|
 |------------2-------------2-------------2-4-4-4-4--4-3-3-3-3--3|
 |0-0-0-0-0-0-2-0-0-0-0-0-0-2-0-0-0-0-0-0-2-4-4-4-4--4-3-3-3-3--3|
  . . . . . .   . . . . . .   . . . . . .   . . . .    . . . .
                                            + + + +    + + + +

 |-----------------------------------------------|
 |-----------------------------------------------|
 |-----------------------------------------------|X2
 | -----------2-------------2-------------2--4--3|
 |------------2-------------2-------------2--4--3|
 |0-0-0-0-0-0-2-0-0-0-0-0-0-2-0-0-0-0-0-0-2--4--3|
  . . . . . .   . . . . . .   . . . . . .

 (Dennis comes in)

 |---------------------------------------------------------------|
 |---------------------------------------------------------------|
 |---------------------------------------------------------------|
 |------------2-------------2-------------2-4-4-4-4--4-3-3-3-3--3|
 |------------2-------------2-------------2-4-4-4-4--4-3-3-3-3--3|
 |0-0-0-0-0-0-2-0-0-0-0-0-0-2-0-0-0-0-0-0-2-4-4-4-4--4-3-3-3-3--3|
  . . . . . .   . . . . . .   . . . . . .   . . . .    . . . .
                                            + + + +    + + + +

 |-----------------------------------------------|
 |-----------------------------------------------|
 |-----------------------------------------------|
 | -----------2-------------2-------------2--4--3|
 |------------2-------------2-------------2--4--3|
 |0-0-0-0-0-0-2-0-0-0-0-0-0-2-0-0-0-0-0-0-2--4--3|

 |----------|
 |----------|
 |----------|X4
 |----3-6-2-|
 |----3-6-2-|
 |0-0-3-6-2-|

 |---------------------------------------------------|
 |---------------------------------------------------|
 |---------------------------------------------------|X4
 |------------------------3-------------------------2|
 |------------------------3-------------------------2|
 |0-0-0-0-0-0-0-0-0-0-0-0-3-0-0-0-0-0-0-0-0-0-0-0-0-2|
  . . . . . . . . . . . .   . . . . . . . . . . . .
  + + + + + + + + + + + +   + + + + + + + + + + + +

 |-----------------------------------------------|
 |-----------------------------------------------|
 |-----------------------------------------------|X4
 | -----------2-------------2-------------2--4--3|
 |------------2-------------2-------------2--4--3|
 |0-0-0-0-0-0-2-0-0-0-0-0-0-2-0-0-0-0-0-0-2--4--3|
  . . . . . .   . . . . . .   . . . . . .

 After that Dennis makes a long grunt and than wait untill he is done and than play farther.

 |--------------------------------------------------|
 |--------------------------------------------------|
 |--------------------------------------------------|X4
 |0-0-0-0---------0-0-0-0--------0-0-0-0-0-3-3-3-3-6|
 |0-0-0-0---------0-0-0-0--------0-0-0-0-0-3-3-3-3-6|
 |0-0-0-0--0-0-0--0-0-0-0--0-0-0-0-0-0-0-0-3-3-3-3-6|
  . . . .  . . .  . . . .  . . . . . . . .
                                 + + + + + + + + +

 |---------------------------------------------------|
 |---------------------------------------------------|
 |---------------------------------------------------|X4
 |------------------------3-------------------------2|
 |------------------------3-------------------------2|
 |0-0-0-0-0-0-0-0-0-0-0-0-3-0-0-0-0-0-0-0-0-0-0-0-0-2|
  . . . . . . . . . . . .   . . . . . . . . . . . .
  + + + + + + + + + + + +   + + + + + + + + + + + +

 |---------------------------------------------------------------|
 |---------------------------------------------------------------|
 |---------------------------------------------------------------|
 |------------2-------------2-------------2-4-4-4-4--4-3-3-3-3--3|
 |------------2-------------2-------------2-4-4-4-4--4-3-3-3-3--3|
 |0-0-0-0-0-0-2-0-0-0-0-0-0-2-0-0-0-0-0-0-2-4-4-4-4--4-3-3-3-3--3|
  . . . . . .   . . . . . .   . . . . . .   . . . .    . . . .
                                            + + + +    + + + +

 |-----------------------------------------------|
 |-----------------------------------------------|
 |-----------------------------------------------|
 | -----------2-------------2-------------2--4--3|
 |------------2-------------2-------------2--4--3|
 |0-0-0-0-0-0-2-0-0-0-0-0-0-2-0-0-0-0-0-0-2--4--3|

 |------------------------------|
 |------------------------------|
 |------------------------------|
 |-----------------------4-3----|
 |-----------------------4-3----|
 |0-0---------0-0--------4-3-0-0|
  . .         . .            . .

 That was it my second song of one bullet left I hope you enjoy.