One Dollar Short - Is This The Part Text Guitar Tab

Learn the song with the online tablature player
 / - Slide from the note in front to the note afterwards.
 > - Hold note/chord after you strum it.

Guitar One
*Intro* (0:00 - 0:26)
e|--------------------|                      e|------|
B|-10-10-10-8-8-8-7-7-| < Play 18 times      B|-10->-| < Play once after the
G|-7--7--7--7-7-7-7-7-|                      G|-7-->-|   18 of the previous
D|--------------------|                      D|------|   and let fade.
A|--------------------|                      A|------|
E|--------------------|                      E|------|

e|-------------------------------------------------|
B|-------------------------------------------------|
G|-----------------------------------------7-------|
D|-----0-----0-----0-----0-----0-----0-----------0-|
A|-5-5---5-5---5-5---5-5---5-5---5-5---5-5---5-5---|
E|-------------------------------------------------|

e|-------------------------------------------------|
B|-------------------------------------------------|
G|-----------7-------------------------------------|
D|-----0-----------0-----0-----0-----0-----0-----0-|
A|-5-5---5-5---5-5---5-5---5-5---5-5---5-5---5-5---|
E|-------------------------------------------------|

e|-----------------------------------------------------------------|
B|-----------------------------------------------------------------|
G|-7-7-7-7-------------------------7-7-7-7-------------------------|
D|-7-7-7-7-7-7-7-7-5-5-5-5-5-5-5-5-7-7-7-7-7-7-7-7-5-5-5-5-5-5-5-5-|
A|-5-5-5-5-7-7-7-7-5-5-5-5-5-5-5-5-5-5-5-5-7-7-7-7-5-5-5-5-5-5-5-5-|
E|---------5-5-5-5-3-3-3-3-3-3-3-3---------5-5-5-5-3-3-3-3-3-3-3-3-|

e|-------------------------------------------------|
B|-------------------------------------------------|
G|-----------------7-----------------------7-------|
D|-----0-----0-----------0-----0-----0-----------0-|
A|-5-5---5-5---5-5---5-5---5-5---5-5---5-5---5-5---|
E|-------------------------------------------------|

e|-------------------------------------------------|
B|-------------------------------------------------|
G|-----------------7-------------------------------|
D|-----0-----0-----------0-----0-----0-----0-----0-|
A|-5-5---5-5---5-5---5-5---5-5---5-5---5-5---5-5---|
E|-------------------------------------------------|

e|-----------------------------------------------------------------|
B|-----------------------------------------------------------------|
G|-7-7-7-7-------------------------7-7-7-7-------------------------|
D|-7-7-7-7-7-7-7-7-5-5-5-5-5-5-5-5-7-7-7-7-7-7-7-7-5-5-5-5-5-5-5-5-|
A|-5-5-5-5-7-7-7-7-5-5-5-5-5-5-5-5-5-5-5-5-7-7-7-7-5-5-5-5-5-5-5-5-|
E|---------5-5-5-5-3-3-3-3-3-3-3-3---------5-5-5-5-3-3-3-3-3-3-3-3-|

e|--------------------|                      e|------------|
B|-10-10-10-8-8-8-7-7-| < Play 7 times       B|-10-10-10-8-|
G|-7--7--7--7-7-7-7-7-|                      G|-7--7--7--7-|
D|--------------------|                      D|------------|
A|--------------------|                      A|------------|
E|--------------------|                      E|------------|

LEAD ONE
e|-------------|
B|-------------| < Play 16 times
G|-----------7-|
D|-----0-------|
A|-5-5---5-5---|
E|-------------|

LEAD TWO
e|-----------------------------------------|
B|-----------------------------------------| < Play 4 times
G|-----------------------------------------|
D|-7-7-7-7-8-12-11-11-11-11-11-11-11-11-11-|
A|-x-x-x-x-x-x--x--x--x--x--x--x--x--x--x--|
E|-5-5-5-5-7-10-9--9--9--9--9--9--9--9--9--|

Guitar Two
*Intro* (0:00 - 0:26)
e|-----------------------------------------------------------------|
B|-----------------------------------------------------------------|
G|-----------------------------------------------------------------|
D|-----------------------------------------------------------------|
A|-----------------------------------------------------------------|
E|-----------------------------------------------------------------|

e|-----------------------------------------------------------------|
B|-----------------------------------------------------------------|

 -----|
D|------------------------x->-----|
A|------------------------5->-----|
E|--------------------------------|

e|-----------------------------------------------------------------|
B|-----------------------------------------------------------------|
G|-7-----------------------------------------------7-7-7-7-7-7-7-7-|
D|-x-----------------------------------------------7-7-7-7-7-7-7-7-|
A|-5-----------------------------------------------5-5-5-5-5-5-5-5-|
E|-----------------------------------------------------------------|
* The ending of the above section is played so that the volume is slowly
  increased as you strum, but that's hard so just do whatever.

e|-----------------------------------------------------------------|
B|-----------------------------------------------------------------|
G|-7-7-7-7-------------------------7-7-7-7-------------------------| < Play 2
D|-7-7-7-7-7-7-7-7-5-5-5-5-5-5-5-5-7-7-7-7-7-7-7-7-5-5-5-5-5-5-5-5-| times
A|-5-5-5-5-7-7-7-7-5-5-5-5-5-5-5-5-5-5-5-5-7-7-7-7-5-5-5-5-5-5-5-5-|
E|---------5-5-5-5-3-3-3-3-3-3-3-3---------5-5-5-5-3-3-3-3-3-3-3-3-|

e|--------------------------|
B|--------------------------|
G|-7-7-12-12-12-11-11-11-11-|
D|-x-x-x--x--x--x--x--x--x--|
A|-5-5-10-10-10-9--9--9--9--|
E|--------------------------|

e|---------------------------------------------------------------|
B|---------------------------------------------------------------|
G|-7-7-7-9-11-11-11-11-/-12-12-12-12-1414-141414-141414-141416->-|
D|-x-x-x-x-x--x--x--x--/-x--x--x--x--x-x--x-x-x--x-x-x--x-x-x-->-|
A|-5-5-5-7-9--9--9--9--/-10-10-10-10-1212-121212-121212-121214->-|
E|---------------------------------------------------------------|

e|-----------------------------------------------------------------|
B|-----------------------------------------------------------------|
G|-7-7-7-7-------------------------7-7-7-7-------------------------| < Play 2
D|-7-7-7-7-7-7-7-7-5-5-5-5-5-5-5-5-7-7-7-7-7-7-7-7-5-5-5-5-5-5-5-5-| times
A|-5-5-5-5-7-7-7-7-5-5-5-5-5-5-5-5-5-5-5-5-7-7-7-7-5-5-5-5-5-5-5-5-|
E|---------5-5-5-5-3-3-3-3-3-3-3-3---------5-5-5-5-3-3-3-3-3-3-3-3-|