One Minute Silence - 18 Text Guitar Tab

Learn the song with the online tablature player
1845- One minute silence

Intro

E----------------------------------------------------------------------|
B----------------------------------------------------------------------|
G----------------------------------------------------------------------|
D----------------------------------------------------------------------|
A----------------------------------------------------------------------|
D--2-2-2-3-2-2-2-0-0-0-0--2-2-2-3-2-2-2-0-0-0-0--2-2-2-3-2-2-2-0-0-0-0-|

Main riff

E---------------------------------------------------------------------|
B---------------------------------------------------------------------|
G---------------------------------------------------------------------|
D---------------------------------------------------------------------|
A--2-2-2-3-2-2-2-0-0-0-0-2-2-2-3-2-2-2-0-0-0-0-2-2-2-3-2-2-2-0-0-0-0--|
D--2-2-2-3-2-2-2-0-0-0-0-2-2-2-3-2-2-2-0-0-0-0-2-2-2-3-2-2-2-0-0-0-0--|

this next part is the bit that comes after the main riff and before the
verse starts. Listen to the track on the album 'Buy now saved later' to
see what I mean.

E---------------------------------------------------------------------|
B---------------------------------------------------------------------|
G---------------------------------------------------------------------|
D---------------------------------------------------------------------|
A--2-2-2--2h3-0-0-0-0-0-0-0-0--2-2-2--2h3-0-0-0-0-0-0-0-0--2-2-2--2h3-|
D--2-2-2--2h3-0-0-0-0-0-0-0-0--2-2-2--2h3-0-0-0-0-0-0-0-0--2-2-2--2h3-|

Verse

the verse starts directly after the section above so you have to be
quick with your fingers.

E---------------------------------------------------------------------|
B---------------------------------------------------------------------|
G---------------------------------------------------------------------|
D---------------------------------------------------------------------|
A-----------------------2-2-2h3-----------------------2-2-2h3---------|
D-----------------------2-2-2h3-----------------------2-2-2h3---------|
 lets take another right       lets take another right

E--------------------------------------------------------------------|
B--------------------------------------------------------------------|
G--------------------------------------------------------------------|
D--------------------------------------------------------------------|
A-----------------------3-0h2-2-2-2-2-2-2h3--(play-this-riff-through-|
D-----------------------3-0h2-2-2-2-2-2-2h3--the-rest-of-the-verse)--|
lets take another right no more there's no reason to die.....and so on

The next piece comes after the verse, it's basicly the same but with
palm mutting.

E--------------------------------------------------------------------|
B--------------------------------------------------------------------|
G--------------------------------------------------------------------|
D--------------------------------------------------------------------|
A--2-2-2--2h3-0X0X0X0X0X0X0X0X--2-2-2--2h3-0X0X0X0X0X0X0X0X----------|
D--2-2-2--2h3-0X0X0X0X0X0X0X0X--2-2-2--2h3-0X0X0X0X0X0X0X0X----------|

it then goes back to the main riff for the chorus,
Thats about it. There are 2 verses in all, listen to the to find out
the exact timing.