One Minute Silence - Holy Man Text Guitar Tab

Learn song with the online tabulature player
Holy Man- One Minute Silence
CD: Buy Now...Saved Later
Tabber: Mitchell (Mitchell_J@hotmail.com)
Tuning: Dropped D (eBGDAD)
V =vibrato   h =hammer on   p =pull off   x =scratch

I happened to have a guitar in my hands when this song came on my stereo.
Then I realized how easy Holy Man really is! This took 15 minutes tops.

Intro- repeat several times: (clean)
e ---------------------------------------------
B ---------------------------------------------
G ---------------------------------------------
D -5----5-------5---6----5----5-------5---6----
A ---v----v----------------v----v--------------
D ---5----5---5---5---5----5----5---5---5---5--

Verse: (distortion)
e -------------------------------------------------------------------
B -------------------------6h8----------------------------------6h8--
G -------------------------------------------------------------------
D -3h5--x-x-x-x--3h5--x-x------x-x-x-x--3h5--x-x-x-x--3h5--x-x-------
A -3h5--x-x-x-x--3h5--x-x------x-x-x-x--3h5--x-x-x-x--3h5--x-x-------
D -3h5--x-x-x-x--3h5--x-x------x-x-x-x--3h5--x-x-x-x--3h5--x-x-------

Chorus: (OVERDRIVE!!) "Am I supposed to feel something?!"
e ----------------------------------------------------------------
B ----------------------------------------------------------------
G ----------------------------------------------------------------
D -5h6p5h6p5--6--5-5--x-x--6-5--x-x--5h6p5h6p5--6--5-5--x-x--6-5--
A -5h6p5h6p5--6--5-5--x-x--6-5--x-x--5h6p5h6p5--6--5-5--x-x--6-5--
D -5h6p5h6p5--6--5-5--x-x--6-5--x-x--5h6p5h6p5--6--5-5--x-x--6-5--

Bridge1: "You want it, you need it, you love it, you keep it"
Just plays the intro again with clean tone.

Bridge2: "Say what, say what, say what, say what, say what say what?"
e -----------|-----------------------------------
B -----------|-----------------------------------
G -----------|--REPEAT A WHOLE BUNCH OF TIMES!---
D -5h6p5h6p5-|-0h6-5-0-5h6p5-0--0-6-5-0-5h6p5-0--
A -5h6p5h6p5-|-0h6-5-0-5h6p5-0--0-6-5-0-5h6p5-0--
D -5h6p5h6p5-|-0h6-5-0-5h6p5-0--0-6-5-0-5h6p5-0--

Outro: "HATE ME!!"
e --------------------------------------------------------
B --------------------------------------------------------
G --------------------------------------------------------
D -6-5-5-x-x--6-5-5-x-x--6-5---6-5-5-x-x--6-5-5-x-x--6-5--
A -6-5-5-x-x--6-5-5-x-x--6-5---6-5-5-x-x--6-5-5-x-x--6-5--
D -6-5-5-x-x--6-5-5-x-x--6-5---6-5-5-x-x--6-5-5-x-x--6-5--

I don't know if there's more after that point, or what the song ends on
because my MP3 cuts out some number of seconds before the song's over.
But this is the entire song anyway- hope this helps!

Chords: D5: 000xxx   F5: 333xxx   G5: 555xxx   G#5: 666xxx

Tab originally from: http://diehardtabs.tripod.com