One Ok Rock - Riot Text Guitar Tab

Learn the song with the online tablature player
                             RIOT!! – One OK Rock

This is my first official tab! If anything should be corrected, email me, PM me or
just comment below.

NOTE: There are two guitars in this song, but both aren’t present at the same time very often.

INTRO
00:16)

Guitar 1
e|---------------------------------------------------------------------------|
B|---------------------------------------------------------------------------|
G|---------------------------------------------------------------------------|
D|-5-5--5-5--5-5--5-5--5-5-5----7-7--7-7--7-7--7-7--7-7-7--------------------|
A|-5-5--5-5--5-5--5-5--5-5-5----7-7--7-7--7-7--7-7--7-7-7--------------------|
E|-3-3--3-3--3-3--3-3--3-3-3----5-5--5-5--5-5--5-5--5-5-5--------------------|

e|---------------------------------------------------------------------------|
B|---------------------------------------------------------------------------|
G|-7-7--7-7--7-7--7-7--7-7-7-------------------------------------------------|
D|-7-7--7-7--7-7--7-7--7-7-7----9-9--9-9--9-9--9-9--7-7----------------------|
A|-5-5--5-5--5-5--5-5--5-5-5----9-9--9-9--9-9--9-9--7-7----------------------|
E|------------------------------7-7--7-7--7-7--7-7--5-5----------------------|

RIFF
00:27)

Guitar 1
e|-----------------------------------------------------------------------|
B|-----------------------------------------------------------------------|
G|----------------------7------------------------------------------------| x2
D|-5------7------9------7-x16-------(---------------------5~-)-----------|
A|-5-x16--7-x16--9-x16--5-----------(-second time end on--5~-)-----------|
E|-3------5------7------------------(---------------------3~-)-----------|

Guitar 2
e|------------------------------------------------------------------------|
B|--7~p0—5p0-7p0-5p0-7p0-5p0-7h8~---(-second time end on--8~-)------------|
G|------------------------------------------------------------------------|
D|------------------------------------------------------------------------| x2
A|------------------------------------------------------------------------|
E|------------------------------------------------------------------------|

VERSE
00:50)

Guitar 1
e|---------------------------------------------------------------------------|
B|---------------------------------------------------------------------------|
G|------------------77777777-99999999-1111111111111111-----------------------|
D|-(-5-5--5-)-------xxxxxxxx-xxxxxxxx-xxxxxxxxxxxxxxxx-----------------------| x2
A|-(-5-5--5-)—x8----55555555-77777777-9999999999999999-----------------------|
E|-(-3-3--3-)----------------------------------------------------------------|
PM:  x x

PRE-CHORUS
01:10)

Guitar 1
e|---------------------------------------------------------------------------|
B|---------------------------------------------------------------------------|
G|---------------------------------------------------------------------------|
D|--99999999--77777777--55555555--77777777--99999999--77777777---------------|
A|--99999999--77777777--55555555--77777777--99999999--77777777---------------|
E|--77777777--55555555--33333333--55555555--77777777--55555555---------------|
PM: xxxxxxxx  xxxxxxxx  xxxxxxxx  xxxxxxxx  xxxxxxxx  xxxxxxxx

e|---------------------------------------------------------------------------|
B|---------------------------------------------------------------------------|
G|---------------------------------------------------------------------------|
D|-5555555555555555—77777777-7-----------------------------------------------|
A|-5555555555555555—77777777-7-----------------------------------------------|
E|-3333333333333333—55555555-5-----------------------------------------------|
   xxxxxxxxxxxx

CHORUS
01:23)

(Listen to the song to get the right rhythm; I just state what pow. chords to play and
how many times they’re played, don’t play them straight forward)

Guitar 1
e|---------------------------------------------------------------------------|
B|---------------------------------------------------------------------------|
G|------------7--------------------------------------------------------------|
D|--9----5----7-x8-7---------------------------------------------------------| x3
A|--9-x8-5-x8-5----7-x8------------------------------------------------------|
E|--7----3---------5---------------------------------------------------------|

Then

e|---------------------------------------------------------------------------|
B|---------------------------------------------------------------------------|
G|---------------------------------------------------------------------------|
D|--(5-5—-5)-----7-----------------------------------------------------------|
A|--(5-5—-5)-x6--7-----------------------------------------------------------|
E|--(3-3—-3)-----5-----------------------------------------------------------|
PM: x x

RIFF
01:44) (just once!)

VERSE 2
01:53)
Guitar 1
e|---------------------------------------------------------------------------|
B|---------------------------------------------------------------------------|
G|------------------77777777-99999999-1111111111111111-----------------------|
D|-(-5-5--5-)-------xxxxxxxx-xxxxxxxx-xxxxxxxxxxxxxxxx-----------------------|
A|-(-5-5--5-)—x8----55555555-77777777-9999999999999999-----------------------|
E|-(-3-3--3-)----------------------------------------------------------------|
PM:  x x

e|-(------33-)------------------------------------------------------------------|
B|-(------33-)------------------------------------------------------------------|
G|-(---------)---------77777777-99999999-1111111111111111-----------------------|
D|-(-5-5-----)-x8------xxxxxxxx-xxxxxxxx-xxxxxxxxxxxxxxxx-----------------------|
A|-(-5-5-----)—--------55555555-77777777-9999999999999999-----------------------|
E|-(-3-3-----)------------------------------------------------------------------|
PM:  x x

PRE-CHORUS
02:14)

CHORUS
02:26)
SOLO/FILL/BRIDGE
NOTE: There’s some kind of solo going on in the background by a third guitar, but I have
not been able to tab it. If someone could, it would be wonderful! Sorry for this.
Guitar 1 (There’s a pretty alternative rythm here compared to the rest of the song, so
I’ll just tab the chords.)
e|------------------------------------------------------------------------------|
B|------------------------------------------------------------------------------|
G|------------------7---7-------------------------------------------------------|
D|--7---9---7---9---7---7-------------------------------------------------------|
A|--7---9---7---9---5---5-------------------------------------------------------|
E|--5---7---5---7---------------------------------------------------------------|

Guitar 2 just plays the RIFF until the end, or it turns into a solo halfway through. Not sure.

CHORUS
03:20)

RIFF
03:41)

END

| /   slide up
| \   slide down
| h   hammer-on
| p   pull-off
| ~   vibrato
| +   harmonic
| x   Mute note
| b   Bend
| pb  Pre-bend
| br  Bend release
| pbr Pre-bend release
| brb Bend release bend