One Piece - Binks No Sake Text Guitar Tab

Learn the song with the online tablature player
Enjoy it as I do!!! =D

|--------------------------|-----------------------------|
|--8-11-11-11--13-11-8-11--|-8-11-11-11--13-11-8---------|
|--------------------------|---------------------8-------|
|--------------------------|-----------------------------|
|--------------------------|-----------------------------|
|--------------------------|-----------------------------|

|--------------------------|-----------------------------|
|--8-11-11-11--13-11-8-11--|-8-11-11-11--13-11-8---------|
|--------------------------|---------------------8-------|
|--------------------------|-----------------------------|
|--------------------------|-----------------------------|
|--------------------------|-----------------------------|

|--------------------|---------------------------------------------------------|
|--11-8--------------|--11-8--------------------------------------8-8----------|
|-------10-8-------8-|-------10-8----------------------------8-10-----10-8-10--|
|------------10-12---|------------10-12-8-8-10-12-8-8-10-12--------------------|
|--------------------|---------------------------------------------------------|
|--------------------|---------------------------------------------------------|

|--------------------|---------------------------------------------------------|
|--11-8--------------|--11-8-----------------------------------9-8-------------|
|-------10-8-------8-|-------10-8----------------------------8-----8-10-10-8---|
|------------10-12---|------------10-12-8-8-10-12-8-8-10-12--------------------|
|--------------------|---------------------------------------------------------|
|--------------------|---------------------------------------------------------|